Oops, an error
Loading. Please wait.

Ievan Polkka bass

version 1
version 1

Whole song

Interactive

586 views 3 this week
no commentswrite comment
1 2 3 4 5
2 more votes to show rating
add to favorites
×
Save as Personal and add changes to this tab that will be seen only by you. Learn more ›
×
You can save this tab as Personal to edit and correct it or add notes. All changes will be seen only by you. Learn more »
launch autoscroll
font size
0
reset
guitar tuner
edit
Autoscroll
slow
fast
+/-
esc
set tempo
stop
I am surprised there weren't many tabs on this song to begin with except for two differing ones, so I will try
my best to do a few more to add into the list.  Transcribed as always, to fit the tuning I work best with :)

I decided to basically make a very very long bass tab that repeats a lot, but it's in quite a bit of detail.
Timestamps included both at the top and to the right of each section to suggest when the next section starts as
opposed to end times.

I understand some parts may be off in terms of the fact it's a transposed tuning, but ya make do with what ya
have around you.

-Sharky

-------------------------------------------------------------------------------------------------------------

Timestamps: 0:01 - Intro
            0:08 - Pre-Verse
            0:16 - Verse
            0:23 - Pre-Chorus
            0:30 - Chorus
            0:38 - Verse
            0:45 - Pre-Chorus
            0:53 - Chorus
            1:07 - Verse
            1:15 - Pre-Chorus
            1:22 - Chorus
            1:37 - Verse
            1:44 - Pre-Chorus
            1:52 - Chorus
            2:07 - Verse
            2:14 - Pre-Chorus
            2:21 - Chorus
            2:36 - Break
            2:43 - Pre-Chorus
            2:51 - Chorus
            2:58 - Outro

-------------------------------------------------------------------------------------------------------------

Intro: G|-------------------------------------------|      0:01
       D|-------------------------------------------|
       A|-3-5~-5-3-x-x-3-5-x-x-3-5~-5-3-x-x-3-5~-5~-|
       E|-------------------------------------------|

Pre-Verse: G|---------------------------------|      0:08
           D|---------------------------------| X2
           A|---------3-33333-3-33333-5-55555-|
           E|-5-55555-------------------------|

Verse: G|---------------------------------|      0:16
       D|---------------------------------| X2
       A|-5-5-5-5-5-5-5-5-3-3-3-3-5-5-5-5-|
       E|---------------------------------|

Pre-Chorus: G|---------------------------------|      0:23
            D|---------------------------------| X2
            A|---------3-3-3-3-3-3-3-3-5-5-5-5-|
            E|-5-5-5-5-------------------------|

Chorus: G|---------------------------------|      0:30
        D|---------------------------------| X2
        A|---------3-3-0-3-3-3-0-3-5-5-3-5-|
        E|-5-5-3-5-------------------------|

Verse: G|---------------------------------|      0:38
       D|---------------------------------| X2
       A|-5-5-5-5-5-5-5-5-3-3-3-3-5-5-5-5-|
       E|---------------------------------|

Pre-Chorus: G|---------------------------------|      0:45
            D|---------------------------------| X2
            A|---------3-3-3-3-3-3-3-3-5-5-5-5-|
            E|-5-5-5-5-------------------------|

Chorus: G|---------------------------------|      0:53
        D|---------------------------------| X4
        A|---------3-3-0-3-3-3-0-3-5-5-3-5-|
        E|-5-5-3-5-------------------------|

Verse: G|---------------------------------|      1:07
       D|---------------------------------| X2
       A|-5-55555-5-55555-3-33333-5-55555-|
       E|---------------------------------|

Pre-Chorus: G|---------------------------------|      1:15
            D|---------------------------------| X2
            A|---------3-33333-3-33333-5-55555-|
            E|-5-55555-------------------------|

Chorus: G|---------------------------------|      1:22
        D|---------------------------------| X4
        A|---------3-33333-3-33333-5-55555-|
        E|-5-55555-------------------------|

Verse: G|---------------------------------|      1:37
       D|---------------------------------| X2
       A|-5-5-5-5-5-5-5-5-3-3-3-3-5-5-5-5-|
       E|---------------------------------|

Pre-Chorus: G|---------------------------------|      1:44
            D|---------------------------------| X2
            A|---------3-3-3-3-3-3-3-3-5-5-5-5-|
            E|-5-5-5-5-------------------------|

Chorus: G|---------------------------------|      1:52
        D|---------------------------------| X4
        A|---------3-3-0-3-3-3-0-3-5-5-3-5-|
        E|-5-5-3-5-------------------------|

Verse: G|---------------------------------|      2:07
       D|---------------------------------| X2
       A|-5-5-5-5-5-5-5-5-3-3-3-3-5-5-5-5-|
       E|---------------------------------|

Pre-Chorus: G|---------------------------------|      2:14
            D|---------------------------------| X2
            A|---------3-3-3-3-3-3-3-3-5-5-5-5-|
            E|-5-5-5-5-------------------------|

Chorus: G|---------------------------------|      2:21
        D|---------------------------------| X4
        A|---------3-3-0-3-3-3-0-3-5-5-3-5-|
        E|-5-5-3-5-------------------------|

Break: G|----------------------------------------------------|      2:36
       D|----------------------------------------------------|
       A|---------x-x-x-x-x-x-x-x-x-x-x-x---------x-x-x-x-9\-|
       E|-x-x-x-x-------------------------x-x-x-x------------|

Pre-Chorus: G|---------------------------------|      2:43
            D|---------------------------------| X2
            A|---------3-3-0-3-3-3-0-3-5-5-0-5-|
            E|-5-5-0-5-------------------------|

Chorus: G|---------------------------------|      2:51
        D|---------------------------------| X2
        A|---------3-3-033-3-3-033-5-5-055-|
        E|-5-5-055-------------------------|

Outro: G|---------------------------------|      2:58
       D|---------------------------------|
       A|---------3-3-033-3-3-033-5-5-055-|
       E|-5-5-055-------------------------|

       G|---------------------------------------|
       D|---------------------------------------|
       A|---------3-3-033-3-3-033-5-5-5-5-5~-5\-|
       E|-5-5-055-------------------------------|

            
            
Suggest correction
Creating personal tab
Creating personal tab
You can edit any tab online and save it as your Personal.

You can edit, replace or remove any tab part or add personal notes – all changes will be seen only by you.

Personal tabs can be accessed anytime from any device, even offline.
Learn more »
Give kudos to tab author, rate the tab!
1 2 3 4 5
comments
print report bad tab
guest
You may want to rate the tab now too:
select rating
Wanna post a correction for this tab? Suggest correction