Oops, an error
Loading. Please wait.

Metsamies Tab

version 2
version 2

Whole song

Interactive

2,527 views 6 this week
no commentswrite comment
1 2 3 4 5
please rate
add to favorites
launch autoscroll
font size
0
reset
how to read this tab
guitar tuner
Autoscroll
slow
fast
+/-
esc
set tempo
stop
Help us to improve Ultimate-Guitar.com Take our survey!
×
Difficulty
intermediate
(This is the corrected version.)

Intro:

e------------------------------------------|
B------------------------------------------|
G--7--5-----7--7--5-----7--5---------------|
D--7--5--7--7--7--5--7--7--5---------------|
A--5--3--7--5--3--3--7--5--3---------------|
E--------5-----------5---------------------|

1st verse:
(play 2x)

e------------------------------------------|
B------------------------------------------|
G--7----7----777--777------------7----7----|
D--777--777--555--555--7----7----777--777--|
A--555--555------------777--777--555--555--|
E----------------------555--555------------|
    ..   ..   ..   ..   ..   ..   ..   ..

(play 2x)
e------------------------------------------|
B------------------------------------------|
G--7----7----5----5--------------7----7----|
D--777--777--555--555--7----7----777--777--|
A--555--555--333--333--777--777--555--555--|
E----------------------555--555------------|
    ..   ..   ..   ..   ..   ..   ..   ..


Ending of the 1st verse
e------------------------------------------|
B------------------------------------------|
G--5----5--------5--7----------------------|
D--555--555---7--5--7----------------------|
A--333--333---7--3--5----------------------|
E-------------5----------------------------|
    ..   ..


Riff 2:
(play 2x)

e------------------------------------------|
B------------------------------------------|
G--7----7----5----5--------------7----7----|
D--777--777--555--555--7----7----777--777--|
A--555--555--333--333--777--777--555--555--|
E----------------------555--555------------|
    ..   ..   ..   ..   ..   ..   ..   ..


ending..
e------------------------------------------|
B------------------------------------------|
G--5----5--------5--7----------------------|
D--555--555---7--5--7----------------------|
A--333--333---7--3--5----------------------|
E-------------5----------------------------|
    ..   ..


repeat Verse 1 again, Riff 2,
now intro again, and again 2x Riff 2,
and final ending:

(play 2x)
e------------------------------------------|
B------------------------------------------|
G--7777--5555--------7777------------------|
D--7777--5555--7777--7777------------------|
A--5555--3333--7777--5555------------------|
E--------------5555------------------------|

ending..
e------------------------------------------|
B------------------------------------------|
G--5555------5--7--------------------------|
D--5555---7--5--7--------------------------|
A--3333---7--3--5--------------------------|
E---------5--------------------------------|


Hope it is not too much out of original tune ;)
Tabbed by: Tonny B.
(h a c x c z A T g m a i l D O T c o m)
Suggest correction
Give kudos to tab author, rate the tab!
1 2 3 4 5
comments
print report bad tab
guest
You may want to rate the tab now too:
select rating
Please do not post tabs as comments. Select "correction" instead!