Oops, an error
Loading. Please wait.

Palovana Guitar Pro

3,453 views 1 this week
3 commentsread comments
1 2 3 4 5
excellent!
x 4
add to favorites
guitar tuner
Autoscroll
slow
fast
+/-
esc
set tempo
stop
Help us to improve Ultimate-Guitar.com Take our survey!
×
Author
Difficulty
Filesize
Instruments
intermediate
91 Kb
rhythm guitar #1, rhythm guitar #2, lead guitar, bass, percussion, other #1, other #2
"Palovana"
demo version
Play now

or get full version for Free

Get full version now!
To learn and play this song
in Tab Pro, start free trial
Start free trial

or get $10 off Welcome Bonus

Get welcome bonus
Get access to Tab Pro version of “Palovana”!
Tab Pro is a premium guitar tab service, available on PC, Mac, iOS and Android
START FREE TRIAL
Your download will start in 7 seconds
×
Enter for a chance to win a FREE lesson from The Doors’ guitarist Robby Krieger plus other great prizes!
To download “Palovana” Guitar Pro tab click button below
Please note that you must have Guitar Pro software installed on your
computer in order to view this file.
comments
report bad tab
3 comments total.
0 reply
Steven D 111 wrote on August 29 2010, 10:15 am

Awesome tab 5/5! I'm surprised it didn't get any ratings yet. 0_0

Anyway, I would play the melodic part for the lead like this (it's a bit easier cause it follows mainly just one part of the G scale so you don't have to move you hands like crazy:)

     Q    S S S S S S S S E  S S    Q    S S S S S S S S S S  S S  
E||------------------------------|-----------------------8-6------|
B||-----------8------------------|---------------------8-----10-6-|
G||---------7---7-5-7------------|---------5-7-8-8---8------------|
D||-------------------8-7-8--5---|--5--------------8--------------|
A||----------------------------8-|--------------------------------|
E||------------------------------|--------------------------------|

Q E S T T S S S S S S S S
--------------------------------|
--8-----------------------------|
-------7--5-7-5---5-------------|
----------------8---7-----0-4-7-|
----------------------8-9-------|
--------------------------------|

+2 reply
Steven D 111 wrote on August 29 2010, 10:21 am

Man... this website really needs an edit button...

Anyway, forgot to change the 10 in the second part. Here's what I meant:

     Q    S S S S S S S S E  S S    Q    S S S S S S S S S S S S  
E||------------------------------|-----------------------8-6-5---|
B||-----------8------------------|---------------------8-------6-|
G||---------7---7-5-7------------|---------5-7-8-8---8-----------|
D||-------------------8-7-8--5---|--5--------------8-------------|
A||----------------------------8-|-------------------------------|
E||------------------------------|-------------------------------|

Q E S T T S S S S S S S S
--------------------------------|
--8-----------------------------|
-------7--5-7-5---5-------------|
----------------8---7-----0-4-7-|
----------------------8-9-------|
--------------------------------|

0 reply
Trenktuvas 98 wrote on October 7 2010, 04:53 pm

Thanks for the correction :) actually, I only played the distortion guitar and for the others, I was mainly concerned with correct notes. Plus I tabbed that part a long time ago and only got back to it recently :) And the lack of ratings is understandable - this song isn't that popular compared to other Korpiklaani songs. It doesn't stand out for the average Korpiklaani fan.

guest
You may want to rate the tab now too:
select rating
Please do not post tabs as comments. Select "correction" instead!