Oops, an error
Loading. Please wait.

Spring Dance Tab

version 1
version 1

Whole song

Interactive

1,716 views 1 this week
1 commentread comment
1 2 3 4 5
2 more votes to show rating
add to favorites
launch autoscroll
font size
0
reset
how to read this tab
guitar tuner
Autoscroll
slow
fast
+/-
esc
set tempo
stop
Help us to improve Ultimate-Guitar.com Take our survey!
×
I upload the lead part which isn't on guitar, on guitar in the guitar part on second guitar' follow the tab.
All the song is based on four riffs.

RIFF 1

1st Guitar:

e|-------------------8-------------------------------|
B|---------------6-9---9-6--8-8-9-8-6----------------|
G|-5-5-7-8-7-5-8----------------------8-7--7h8p7-5-5-|
D|------------------------------------------------8--|
A|---------------------------------------------------|
E|---------------------------------------------------|

2nd guitar
     P.M     P.M      P.M
e|----------------------------------|
B|----------------------------------|
G|-5----5-5-------------------7-3-5-|
D|-5----5-5-3----3-3-5----5-5-7-3-5-|
A|-3-33-3-3-3----3-3-5----5-5-5-1-3-|
E|----------1-11-1-1-3-33-3-3-------|

LAST ONE YOU SLIDE DOWN!

RIFF 2

1st Guitar:

e|-------------------8-------------------------------|
B|---------------6-9---9-6--8-8-9-8-6----------------|
G|-5-5-7-8-7-5-8----------------------8-7--7h8p7-5-5-|
D|------------------------------------------------8--|
A|---------------------------------------------------|
E|---------------------------------------------------|

2nd Guitar:

P.M all single notes (listen to the song!)
e|----------------------------------|
B|----------------------------------|
G|--5-5-5-5-------------------7-3-5-|
D|--5-5-5-5-3-3-3-3--5-5-5-5--7-3-5-|
A|-33333333-3-3-3-3--5-5-5-5-5511-3-|
E|---------11111111-33333333--------|

LAST TIME YOU SLIDE UP THEN DOWN!

RIFF 3

1st Guitar:

e|---10--10--10--10-10h11p10h11p10----------------------|
B|-----11------11-----------------11--11h13p11h13p11-10-|
G|-12------12-----------------------12------------------|
D|------------------------------------------------------|
A|------------------------------------------------------|
E|------------------------------------------------------|

2nd Guitar:

1st Guitar:

e|-----------------|
B|-----------------|
G|-----------------|
D|----------3--1-3-|
A|--5-5-5-5-3--1-3-|
E|-3-6-3-6--1----1-|

RIFF 4

1st Guitar:

e|-----------------------------------------------------|
B|---10--10--10--10-10h11p10h11p10---------------------|
G|-----10------10-----------------10--10h12p10h12p10-9-|
D|-12------12-----------------------12-----------------|
A|-----------------------------------------------------|
E|-----------------------------------------------------|

2nd Guitar:

e|----------------|
B|----------------|
G|----------3---5-|
D|--7-7-7-7-3---5-|
A|-5-8-5-8--1---3-|
E|----------------|

That's all, and that's how it goes:
Riff 1 - 4 times!
Riff 2 - 4 times!
Riff 3 - 4 times!
Riff 4 - 4 times!
Riff 3 - 4 times!
Riff 4 - 4 times!
Riff 1 - 4 times!
Riff 2 - 4 times!
Riff 3 - 4 times!
Riff 4 - 4 times!
Riff 3 - 4 times!
Riff 4 - 4 times!
Riff 1 - 2 times!

Enjoy! Eldad
And thanks to Stylefree for the correction.
Suggest correction
Give kudos to tab author, rate the tab!
1 2 3 4 5
comments
print report bad tab
1 comment total.
0 reply
sTyleFree 52 Jan 20, 2007 10:00 AM

try
e|----------------|
B|----------------|
G|----------3---5-|
D|--7-7-7-7-3---5-|
A|-5-8-5-8--1---3-|
E|----------------|


instead of
e|----------------|
B|----------------|
G|----------------|
D|--7-7-7-7-3---5-|
A|-5-8-5-8--3---5-|
E|----------1---3-|

guest
You may want to rate the tab now too:
select rating
Wanna post a correction for this tab? Suggest correction