Oops, an error
Loading. Please wait.

Under The Sun Tab

version 1
version 1

Intro

Whole song

Interactive

3,402 views 1 this week
no commentswrite comment
1 2 3 4 5
please rate
add to favorites
launch autoscroll
font size
0
reset
how to read this tab
guitar tuner
Tab Pro tools
  • play this tab
  • loop segment
  • change instrument
  • show fretboard
  • metronome
×
Best way to learn
"Under The Sun"
Autoscroll
slow
fast
+/-
esc
set tempo
stop
Contributor
All should be correct! (Just the real intro part, none of the power chords w/e)
Tuning: E, A, D, G, B, e


e--------------------------------------------------------------------------------|
B--------------10-11-10---------------------------------10--10-13-10------10-----|
G--777-9-10-12----------12-10---9-9-10---10-12-7---7-10-----------------12-------|
D--------------------------------------------------------------------------------|
A--------------------------------------------------------------------------------|
E--------------------------------------------------------------------------------|

e--------------------------------------------------------------------------------|
B-----------10--10---------------------------------------------------------------|
G-10--10-12--------12-10-10-9-10-12-10-9-7---7-9-10---10-9----10-7---------------|
D----------------------------------------------------------7---------------------|
A--------------------------------------------------------------------------------|
E--------------------------------------------------------------------------------|

(this goes on 4 times)

Then the chorus (kinda, I dont know if the guitar actually does this)

e--------------------------------------------------------------------------------|
B--------------------------------------------------------------------------------|
G-10-9-7-7---7-7-7-7---10-9-7-7---7-7-7-7---12-10-9-9---9-9-10-9-----------------|
D--------------------------------------------------------------------------------|
A--------------------------------------------------------------------------------|
E--------------------------------------------------------------------------------|

Well, thats all I've got, enjoy!
comments
We did not receive enough feedback on this tab! Please rate:
print report bad tab
1 2 3 4 5
I want to post or [tab]
guest
You may want to rate the tab now too:
select rating
Please do not post tabs as comments. Select "correction" instead!