Oops, an error
Loading. Please wait.

Under The Sun Tab

version 1
version 1

Intro

Whole song

Interactive

6,810 views 18 this week
no commentswrite comment
1 2 3 4 5
please rate
add to favorites
launch autoscroll
font size
0
reset
how to read this tab
guitar tuner
Tab Pro tools
  • play this tab
  • loop segment
  • change instrument
  • show fretboard
  • metronome
Autoscroll
slow
fast
+/-
esc
set tempo
stop
Contributor

INTRO

Tremolo picking!

e|-------3h5-5-6-5---------------5-5-8-5-5------|
B|--5-6-8---------8-6-5-6-6-8---6-------8-6-6-8-|
G|-7-------------------------7-7----------------|
D|----------------------------------------------|
A|----------------------------------------------|
E|----------------------------------------------|

e|-5-5-------------------------------|
B|----8-6-6-5-6-8-6-5---5-6-6-5-5h6--|
G|-------------------7-7-----------7-|
D|-----------------------------7-----|
A|-----------------------------------|
E|-----------------------------------|

Guitar enters:

e|-------------------------------------------------------------------------|
B|-------------------------------------------------------------------------|
G|-7----7----7----7------------------------7----5----3----2--------------7-|
D|-7----7----7----7----3----3----7----7----7----5----3----2----3----5----7-|
A|-5-55-5-55-5-55-5-55-3----3----7----7-55-5-55-3-33-1-11-0-00-3----5----5-|
E|---------------------1-11-1-33-5-55-5------------------------1-11-3-33---|

VERSE
All chords are normal, not power chords:

|Dm| |Dm| |F| |F| |A|            |
|Dm| |C| |A#| |A| |F| |G| |Dm|   | X2

CHORUS:
POWER CHORDS:
You are the one, You are the one  |C|             |
|D|              |G|                              |
You are the one, You are the one, Under the Sun   | X4
|D|              |G|              |C|             |
                                                  |
Lead guitar:                                      |
                                                  |
B|-6-5-3-6-5-3-6-5-3-6-5-3-6-5-3-8-6-5-8-6-5-8-6-5|

Interlude:

|D| |G| |C| |D| |G| |C|

1st guitar:

Tremolo picking!

e|-------3h5-5-6-5---------------5-5-8-5-5------|
B|--5-6-8---------8-6-5-6-6-8---6-------8-6-6-8-|
G|-7-------------------------7-7----------------|
D|----------------------------------------------|
A|----------------------------------------------|
E|----------------------------------------------|

e|-5-5-------------------------------|
B|----8-6-6-5-6-8-6-5---5-6-6-5-5h6--|
G|-------------------7-7-----------7-|
D|-----------------------------7-----|
A|-----------------------------------|
E|-----------------------------------|

2nd guitar:

e|-------------------------------------------------------------------------|
B|-------------------------------------------------------------------------|
G|-7----7----7----7------------------------7----5----3----2--------------7-|
D|-7----7----7----7----3----3----7----7----7----5----3----2----3----5----7-|
A|-5-55-5-55-5-55-5-55-3----3----7----7-55-5-55-3-33-1-11-0-00-3----5----5-|
E|---------------------1-11-1-33-5-55-5------------------------1-11-3-33---|

2ND VERSE:
All chords are normal, not power chords:

|Dm| |Dm| |F| |F| |A|            |
|Dm| |C| |A#| |A| |F| |G| |Dm|   | X2

CHORUS:
POWER CHORDS:
You are the one, You are the one                  |
|D|              |G|              |C|             |
You are the one, You are the one, Under the Sun   | X4
|D|              |G|              |C|             |
                                                  |
Lead guitar:                                      |
                                                  |
B|-6-5-3-6-5-3-6-5-3-6-5-3-6-5-3-8-6-5-8-6-5-8-6-5|

Interlude:

|D| |G| |C| |D| |G| |C|

OUTRO:

1st guitar:

Tremolo picking!

e|-------3h5-5-6-5---------------5-5-8-5-5------|
B|--5-6-8---------8-6-5-6-6-8---6-------8-6-6-8-|
G|-7-------------------------7-7----------------|
D|----------------------------------------------|
A|----------------------------------------------|
E|----------------------------------------------|

e|-5-5-------------------------------|
B|----8-6-6-5-6-8-6-5---5-6-6-5-5h6--|
G|-------------------7-7-----------7-|
D|-----------------------------7-----|
A|-----------------------------------|
E|-----------------------------------|

2nd guitar:

e|-------------------------------------------------------------------------|
B|-------------------------------------------------------------------------|
G|-7----7----7----7------------------------7----5----3----2--------------7----7-|
D|-7----7----7----7----3----3----7----7----7----5----3----2----3----5----7-5-7-|
A|-5-55-5-55-5-55-5-55-3----3----7----7-55-5-55-3-33-1-11-0-00-3----5----5-5-5-|
E|---------------------1-11-1-33-5-55-5------------------------1-11-3-33---3---|

Enjoy! Eldad
comments
We did not receive enough feedback on this tab! Please rate:
print report bad tab
1 2 3 4 5
I want to post or [tab]
guest
You may want to rate the tab now too:
select rating
Please do not post tabs as comments. Select "correction" instead!