Oops, an error
Loading. Please wait.

Vodka Bass Tab

version 1
version 1

Whole song

Interactive

2,555 views 18 this week
no commentswrite comment
1 2 3 4 5
3 more votes to show rating
add to favorites
launch autoscroll
font size
0
reset
guitar tuner
Autoscroll
slow
fast
+/-
esc
set tempo
stop
Help us to improve Ultimate-Guitar.com Take our survey!
×
Author
Difficulty
intermediate
Song    : Vodka
Band    : Korpiklaani
Album   : Karkelo (2009)
Bassist : Jarkko Aaltonen
Tuning  : D G C F
Beat    : 180

Each dash represents an eighth note (so a quarter note is represented by 2 dashes, etc...)

Intro
F|----------------------------------------------------------------|
C|----------------------------------------------------------------|
G|----------------33-3333355-55555----------------3-3-x3x35-5-x5x5|
D|00-0000033-33333----------------0-0-x0x03-3-x3x3----------------|

|----------------------------------------------------------------|
|----------------------------------------------------------------|
|7777777755555555333333335555555577777777555555553333333355555555|
|----------------------------------------------------------------|

Verse
|----------------------------------------------------------------|
|----------------------------------------------------------------|
|----------------3-3-x3x35-5-x5x5----------------3-3-x3x35-5-x5x5|
|0-0-x0x03-3-x3x3----------------0-0-x0x03-3-x3x3----------------|

Chorus x2
|----------------------------------------------------------------|
|----------------------------------------------------------------|
|7777777755555555333333335555555577777777555555553333333355555555|
|----------------------------------------------------------------|

Bridge
|--- ---- ---- ---- ---- ---- ------------ ---- ---- ---- ---- ---- -----------------|
|--- ---- ---- ---- ---- ---- ------------ ---- ---- ---- ---- ---- -----------------|
|--3\2--- ---3\2--- ---3\2--- -x3x2------3\2--- ---3\2--- ---3\2--- -----------------|
|00- -002/300- -002/300- -002/3----x3x200- -002/300- -002/300- -002/3----------------|

|--- ---- ---- ---- ---- ---- -----------------|
|--- ---- ---- ---- ---- ---- -----------------|
|--3\2--- ---3\2--- ---3\2--- -----------------|
|00- -002/300- -002/300- -002/3----------------|
Each dash represents an eighth note so I write spaces where there are slides (cause a 
slide isn't a note)

Verse

Chorus

Pause (the most difficult part of the song)
|----------------------------------------------------------------|
|----------------------------------------------------------------|
|----------------------------------------------------------------|
|0~~~~~~~~~~~~~~~~~~~~~~~~~~~~~~~~~~~~~~~~~~~~~~~~~~~~~~~~~~~~~~-|
The note must be heard during all this part so don't hesitate to be violent ;)

Interlude
|----------------------------------------------------------------|
|----------------------------------------------------------------|
|777777775555555533333333555555557777777755555555333333335------5|
|----------------------------------------------------------------|

|----------------------------------------------------------------|
|----------------------------------------------------------------|
|x7x7x7x7x5x5x5x5x3x3x3x3x5x5x5x5x7x7x7x7x5x5x5x5x3x3x3x3x5x5x5x5|
|----------------------------------------------------------------|

|----------------------------------------------------------------|
|----------------------------------------------------------------|
|7-7777775-5555553-3333335-5555557-7777775-5555553-3333335-555555|
|----------------------------------------------------------------|

Verse

Outro
|------------------------------------------------- - - - - - - - - - - - - - - |
|------------------------------------------------- - - - - - - - - - - - - - - |
|--------------------------------7777777799999999101010101010101212121212121212|
|00000000222222223333333355555555----------------- - - - - - - - - - - - - - - |
Like for the slides, each 10th/12th fret note is only one eighth note so I write one dash

|----------------|
|----------------|
|----------------|
|0-0-------------|

VODKA !!!
Suggest correction
Give kudos to tab author, rate the tab!
1 2 3 4 5
comments
print report bad tab
guest
You may want to rate the tab now too:
select rating
Wanna post a correction for this tab? Suggest correction