Oops, an error
Loading. Please wait.

Vodka Violin Parts Tab

502 views 6 this week
no commentswrite comment
1 2 3 4 5
3 more votes to show rating
add to favorites
launch autoscroll
font size
0
reset
how to read this tab
guitar tuner
Autoscroll
slow
fast
+/-
esc
set tempo
stop
Help us to improve Ultimate-Guitar.com Take our survey!
×
Author
Tuning
D G C F A D
I've seen a lot of people asking for someone to tab out the violin parts of this song,
so I decided I'd see what I could do.
This is my first tab, so don't judge too harshly.
It's not perfect, or really even close to it, but it's the best I could
figure out by ear.
Maybe someone could take this tab and improve upon it?


The part from 0:11 through 0:21.
e-12--12-15-12--------------------------------------------------------|
B--------------15-13-12-13--13-15-12--12------------------------------|
G---------------------------------------------------------------------|
D---------------------------------------------------------------------|
A---------------------------------------------------------------------|
D---------------------------------------------------------------------|


e---------------------------------------------------------------------|
B-13--13-15-13-12-13-12-10--10-12-------------------------------------|
G---------------------------------9--9--------------------------------|
D---------------------------------------------------------------------|
A---------------------------------------------------------------------|
D---------------------------------------------------------------------|


The part starting at 1:42.
e-----------------------------------------------------------------------|
B--------12--10-12-10-----------------10-8--7--8------------------------|
G-9--9----------------12--11---7--7-------------------------------------|
D-----------------------------------------------------------------------|
A-----------------------------------------------------------------------|
D-----------------------------------------------------------------------|
Suggest correction
Give kudos to tab author, rate the tab!
1 2 3 4 5
comments
print report bad tab
guest
You may want to rate the tab now too:
select rating
Wanna post a correction for this tab? Suggest correction