Oops, an error
Loading. Please wait.

Wooden Pints Bass Tab

version 1
version 1

Whole song

Interactive

3,314 views 3 this week
no commentswrite comment
1 2 3 4 5
please rate
add to favorites
launch autoscroll
font size
0
reset
guitar tuner
Tab Pro tools
  • play this tab
  • loop segment
  • change instrument
  • show fretboard
  • metronome
Autoscroll
slow
fast
+/-
esc
set tempo
stop
Contributor
-------------------------------------------------------------------------------
			     WOODEN PINTS - Korpiklaani
-------------------------------------------------------------------------------

Tabbed By : nilschpilsch

Tuning: EADG

Note 1: I have put the last D in the verse riff between brackets because im not sure if
is played.

Note 2: I have tabbed out every step like I usually do but since there are only 3
riffs I recommend that you learn the order before playing instead of playing along while
scrolling.

Wooden Pints by Korpiklaani: Enjoy!

UPDATE(10-9-2011): Some minor changes in the tab. The chorus riff slide/note is now from 
1 to 3 (instead of 3 to 5) and the bass lick at the end of each verse (which I did hear 
the first time but not well enough to tab it out too.)

Intro:
G|----------|
D|----------|
A|-55555555-|
E|----------| 6x

G|----------------------------|
D|----------1212121212121212\-| (12 not 1-2)
A|-55555555/------------------|
E|----------------------------|

G|-----------------------------|
D|------3-5/-7--------3--------|
A|-5--3-------------3---5----3-|
E|-------------6-6-------------| 4x

Verse 1:
G|-------------------------------|
D|-----------------------3-------|
A|-5-555-5555555-55553-3---5-(5)-|
E|-------------------------------|

G|---------------------------------|
D|-----------------------3/75-5----|
A|-5-555-5555555-55553-3-----8-875-|
E|---------------------------------|

Chorus 1:
G|-----------------------------|
D|------3-5/-7--------3--------|
A|-5--3-------------3---5----3-|
E|-------------6-6-------------| 4x

Verse 2:
G|-------------------------------|
D|-----------------------3-------|
A|-5-555-5555555-55553-3---5-(5)-|
E|-------------------------------|

G|---------------------------------|
D|-----------------------3/75-5----|
A|-5-555-5555555-55553-3-----8-875-|
E|---------------------------------|

Chorus 2:
G|-----------------------------|
D|------3-5/-7--------3--------|
A|-5--3-------------3---5----3-|
E|-------------6-6-------------| 4x

Verse 3:
G|-------------------------------|
D|-----------------------3-------|
A|-5-555-5555555-55553-3---5-(5)-|
E|-------------------------------|

G|---------------------------------|
D|-----------------------3/75-5----|
A|-5-555-5555555-55553-3-----8-875-|
E|---------------------------------|

Chorus 3:
G|-----------------------------|
D|------3-5/-7--------3--------|
A|-5--3-------------3---5----3-|
E|-------------6-6-------------| 4x


Violin/Guitar Solo:
G|-------------------------------|
D|-----------------------3-------|
A|-5-555-5555555-55553-3---5-(5)-|
E|-------------------------------|

G|---------------------------------|
D|-----------------------3/75-5----|
A|-5-555-5555555-55553-3-----8-875-|
E|---------------------------------|

G|-----------------------------|
D|------3-5/-7--------3--------|
A|-5--3-------------3---5----3-|
E|-------------6-6-------------| 4x

Bass Solo:
G|-----------------------------|
D|------3-5/-7--------3--------|
A|-5--3----------1/-3---5----3-|
E|-------------6---------------| 2x

Violin interlude:
G|-----------------------------|
D|------3-5/-7--------3--------|
A|-5--3----------1/-3---5----3-|
E|-------------6---------------| 2x


Post-Solo: (when vocals enter)
G|----------|
D|----------|
A|-55555555-|
E|----------| 6x

G|----------------------------|
D|----------1212121212121212\-| (12 not 1-2)
A|-55555555/------------------|
E|----------------------------|

Final Chorus:
G|-----------------------------|
D|------3-5/-7--------3--------|
A|-5--3----------1/-3---5----3-|
E|-------------6---------------| 3x

G|----------------------------|
D|------3-5/-7--------3-------|
A|-5--3----------1/-3---55555-|
E|-------------6--------------|
comments
We did not receive enough feedback on this tab! Please rate:
print report bad tab
1 2 3 4 5
I want to post or [tab]
guest
You may want to rate the tab now too:
select rating
Please do not post tabs as comments. Select "correction" instead!