Oops, an error
Loading. Please wait.

Wooden Pints Tab

version 1
version 1

Solo

Whole song

Interactive

3,308 views 1 this week
no commentswrite comment
1 2 3 4 5
please rate
add to favorites
launch autoscroll
font size
0
reset
how to read this tab
guitar tuner
Tab Pro tools
  • play this tab
  • loop segment
  • change instrument
  • show fretboard
  • metronome
×
Best way to learn
"Wooden Pints"
Autoscroll
slow
fast
+/-
esc
set tempo
stop
Contributor
I arranged the violin solo thingy for guitar. Enjoy

  W                                   
-------------------------------------|
--3----------------------------------|
-------------------------------------|
-------------------------------------|
-------------------------------------|
-------------------------------------|


  Q    E  E  E  E  E  E     Q     Q    Q    Q     
----------------0--1--3--|--5----10----7---------|
--L----3--1--3-----------|------------------8----|
-------------------------|-----------------------|
-------------------------|-----------------------|
-------------------------|-----------------------|
-------------------------|-----------------------|


  H        E  E  E  E     Q    Q    Q    E  E   
--5--------5--3--1--0--|--1----0---------------|
-----------------------|------------3----1--3--|
-----------------------|-----------------------|
-----------------------|-----------------------|
-----------------------|-----------------------|
-----------------------|-----------------------|


  E  E  E  E  Q    Q       E  E  E  E  E  E  Q     
-----0--0--3--0---------|--1--0--1--3--1--0-------|
--3----------------1----|--------------------1----|
------------------------|-------------------------|
------------------------|-------------------------|
------------------------|-------------------------|
------------------------|-------------------------|


  Q    E  E  Q    E  E     H        Q    E  E   
-------1--0--1----3--0--|-----------1----3--5--|
--3---------------------|--3-------------------|
------------------------|----------------------|
------------------------|----------------------|
------------------------|----------------------|
------------------------|----------------------|


   Q    Q    H            H         E   E   E   E   
--10----7----5--------|--17--------13--15--12------|
----------------------|------------------------13--|
----------------------|----------------------------|
----------------------|----------------------------|
----------------------|----------------------------|
----------------------|----------------------------|


   H         E   E   E   E      Q     Q     H         
--10--------13--12--13--15--|--13----12----10--------|
----------------------------|------------------------|
----------------------------|------------------------|
----------------------------|------------------------|
----------------------------|------------------------|
----------------------------|------------------------|


   H         H            Q     Q    E   E   E   E   
--15b--------L--------|--17----15----L--12--13--10--|
----------------------|-----------------------------|
----------------------|-----------------------------|
----------------------|-----------------------------|
----------------------|-----------------------------|
----------------------|-----------------------------|


   Q     Q     E   E   E  E   
--13----12--------10--10--L--|
--------------13-------------|
-----------------------------|
-----------------------------|
-----------------------------|
-----------------------------|


   Q     Q     E  E   E  E      Q    Q    E  E  E  E   
--10------------------------|-------------------------|
--------10----10--8------8--|----------------------5--|
---------------------10-----|--10----9----7--5--7-----|
----------------------------|-------------------------|
----------------------------|-------------------------|
----------------------------|-------------------------|


  H        E  E  E  E     E  E  E  E  E  E  E  E   
-----------5--7--8--7--|--5--3--1--0--1--0--------|
--6--------------------|--------------------3--1--|
-----------------------|--------------------------|
-----------------------|--------------------------|
-----------------------|--------------------------|
-----------------------|--------------------------|


  H        E  E  E  E   
-----------------5--8--|
--3--------L--L--------|
-----------------------|
-----------------------|
-----------------------|
-----------------------|


   S  S  E   S  S  E   H         
--10-12-10----------------------|
------------12-13-12--10--------|
--------------------------------|
--------------------------------|
--------------------------------|
--------------------------------|


   H         E   E   E   E      W                  
--17--------15--17----------|---------------------|
--------------------18------|--15~----------------|
------------------------17--|---------------------|
----------------------------|---------------------|
----------------------------|---------------------|
----------------------------|---------------------|
comments
We did not receive enough feedback on this tab! Please rate:
print report bad tab
1 2 3 4 5
I want to post or [tab]
guest
You may want to rate the tab now too:
select rating
Please do not post tabs as comments. Select "correction" instead!