Oops, an error
Loading. Please wait.

Wooden Pints Tab

version 1
version 1

Whole song

Interactive

7,041 views 1 this week
no commentswrite comment
1 2 3 4 5
3 more votes to show rating
add to favorites
launch autoscroll
font size
0
reset
how to read this tab
guitar tuner
Autoscroll
slow
fast
+/-
esc
set tempo
stop
Help us to improve Ultimate-Guitar.com Take our survey!
×
Author
Difficulty
novice
Korpiklaani-Wooden Pints

I´ve got only the verses and the chorus. The song is written in standard tuning.

VERSE:

e|------------------------------|
B|------------------------------|
G|-------------------------5----|
D|-777-777-7777777-7777-55-3-77-|
A|-555-555-5555555-5555-33---55-|
E|------------------------------|

CHORUS:

e|--------------------|
B|--------------------|
G|-----57-9-----5-----|
D|-7-5-35-7-----3-7-7-|
A|-5-3------7-8---5-5-|
E|----------5-6-------|

Listen to the song and you´ll get it soon.

Please comment if something is wrong.

Have Fun!!!
Suggest correction
Give kudos to tab author, rate the tab!
1 2 3 4 5
comments
print report bad tab
guest
You may want to rate the tab now too:
select rating
Wanna post a correction for this tab? Suggest correction