Oops, an error
Loading. Please wait.

Wooden Pints Tab

version 3
version 3

Whole song

Interactive

157 views 1 this week
no commentswrite comment
1 2 3 4 5
please rate
add to favorites
launch autoscroll
font size
0
reset
how to read this tab
guitar tuner
Tab Pro tools
  • play this tab
  • loop segment
  • change instrument
  • show fretboard
  • metronome
×
Best way to learn
"Wooden Pints"
Autoscroll
slow
fast
+/-
esc
set tempo
stop
Difficulty
intermediate
                                                  Wooden Pints                  Korpiklaani

Standard Tuning
Tabbed thanks to euan_soad
Band uses power chords on You Tube and I have only tabbed root notes

intro
e --------------------------------------------------------------------------|
B---------------------------------------------------------------------------|
G---------------------------------------------------------------------------|
D------------3--------------------------------------------------------------|
A---5--3--5-----5--5--------------------------------------------------------|
E---------------------------------------------------------------------------|

Chorus riff
e --------------------------------------------------------------------------|
B---------------------------------------------------------------------------|
G---------------------------------------------------------------------------|
D----------3--5--5--3--------------3----------------------------------------|
A---5--3----------------5------3-------5--5---------------------------------|
E---------------------------6-----------------------------------------------|

Verse
e --------------------------------------------------------------------------|
B---------------------------------------------------------------------------|
G----------------------------------------------------3----------------------|
D---5--5--5--5--5--x--5--5--5--5—5--x--5--5--5—5--3-----5--5----------------|
A---------------------------------------------------------------------------|
E---------------------------------------------------------------------------|




Structure:

Intro           X       8

Chorus          X       4

Verse           X       2

Chorus          X       4

Verse           X       2

Chorus          X       4

Verse           X       2

Chorus          X       4

Lead Break over verse and chorus

Bass solo on Chorus X 2

Chorus X 8 and finish tight on last note.

Just love these guys and will tab more in due course.

comments to dave on ddouglas2414@gmail.com
comments
We did not receive enough feedback on this tab! Please rate:
print report bad tab
1 2 3 4 5
I want to post or [tab]
guest
You may want to rate the tab now too:
select rating
Please do not post tabs as comments. Select "correction" instead!