Oops, an error
Loading. Please wait.

A La Calle chords

by Kortatu
137 views 3 this week
no commentswrite comment
1 2 3 4 5
3 more votes to show rating
add to favorites
×
Save as Personal and add changes to this tab that will be seen only by you. Learn more ›
×
You can save this tab as Personal to edit and correct it or add notes. All changes will be seen only by you. Learn more »
launch autoscroll
font size
0
reset
transpose
0
reset
display chords
guitar tuner
edit
Autoscroll
slow
fast
+/-
esc
set tempo
stop
Strumming
There is no strumming pattern for this song yet. and get +5 IQ
Esta es la version del directo de 1988


intro
      E   E    G#  A   B
e--------------------------------
B--------------------------------
G--------------------------------
D------9---9---------------------
A------7---7---6---7---9---------
E--------------4---5---7---------


estribillo
       E     B     E    B      E     B     E      E
e----------------------------------------------------------
B----------------------------------------------------------
G-----9--9--------9--9--------9--9--------9--9--9--9-------
D-----9--9--9--9--9--9--9--9--9--9--9--9--9--9--9--9-------
A-----7--7--9--9--7--7--9--9--7--7--9--9--7--7--7--7-------
E-----------7--7--------7--7--------7--7-------------------


estrofa
         D   A   E   E                       D   A   B    B
e------------------------------         --------------------------
B------------------------------         --------------------------
G--------7-------9---9---------         -----7--------------------
D--------7---7---9---9---------  X3     -----7----7---9---9-------
A--------5---7---7---7---------         -----5----7---9---9-------
E------------5-----------------         ----------5---7---7-------


E       B           E         B
He visto las calles arder otra vez
E       B          E           E
He visto las calles arder otra vez.
E      B           E          B
He visto las calles arder otra vez
E       B           E            E
He visto las calles arder otra vez.

D           A
Has vivido mucho
E              E
en tan poco tiempo
D              A
La vida va deprisa.
E             E
Todo se lo corrienco
D          A
Mira los chavales
E              E
Qué fuerte vienen dando.
D               A
A A calle, A A calle
B              B
Que lo están currando.

He visto las calles arder otra vez
He visto las calles arder otra vez.
He visto las calles arder otra vez
He visto las calles arder otra vez.

Andas despistado
no sabes qué hacer
ya va siendo hora
que esto empiece a arder
a sentir otra vez
El calor en las calles.
Mira cómo corren
entre el fuego los chavales

he visto las calles arder otra vez
He visto las calles arder otra vez.
he visto las calles arder otra vez
He visto las calles arder otra vez.

            
            
Suggest correction
Creating personal tab
Creating personal tab
You can edit any tab online and save it as your Personal.

You can edit, replace or remove any tab part or add personal notes – all changes will be seen only by you.

Personal tabs can be accessed anytime from any device, even offline.
Learn more »
Give kudos to tab author, rate the tab!
1 2 3 4 5
comments
print report bad tab
guest
Wanna post a correction for this tab? Suggest correction