Oops, an error
Loading. Please wait.

After Boltxevike tab

by Kortatu
54 views 1 this week
no commentswrite comment
1 2 3 4 5
3 more votes to show rating
add to favorites
×
Save as Personal and add changes to this tab that will be seen only by you. Learn more ›
×
You can save this tab as Personal to edit and correct it or add notes. All changes will be seen only by you. Learn more »
launch autoscroll
font size
0
reset
how to read this tab
guitar tuner
edit
Autoscroll
slow
fast
+/-
esc
set tempo
stop
Kortatu - After Boltxebike
--------------------------

Intro:
------

    F             D# A#
E||------------------------------------------|
B||------------------------------------------|
G||------------------------------------------|
D||------------------------------------------|
A||-1s8--------------------------------------|
E||------------------------------------------|

Estrofa:
--------
C
Ez ziren garai onak
A#
Basko-bike pila
C
Zaristek galdu zu
F
Zeukaten nagia.
C
Gazteizgradon zuriak
A#
Arazo larria
C
Bilbof askatu zuten
F
Kosako gorriak.
C
Donosigrado ere
A#
Izan ze askia
C
Iruñakov herrian
F
Bandera gorria.
C
Herriak hartu zuen
D#
Negu jauregia
A#
Hantxe ikusi nuen
F
Iñakiskidea.

Estribilho:
-----------
D#             A#  F
¡after-boltxebike!
D#             A#  F
¡after-boltxebike!

Puente:
-------
    C  A#  C  F      C     D#    A#    F
E||---------------|--8-----11----------13------|
B||---------------|--11br--14br--11----16b-----|
G||---------------|--------------13br----------|
D||---------------|----------------------------|
A||---------------|----------------------------|
E||---------------|----------------------------|

Solo:
-----
E||---------------------|-----------------|------------------|
B||---------------------|-----------------|------------------|
G||--3b--3pbr---1-------|--2---3---2-3----|---------1---1-3b-|
D||---------------3---1-|--3-x-3-x-3-3--1-|-----1-3---3------|
A||---------------------|-----------------|--3---------------|
E||---------------------|-----------------|------------------|

E||-------------------|-------------------|------------|---------------|
B||-------------------|-------------------|------------|---------------|
G||------------1b-----|------------1b-----|---3-3--3b--|--3b-3b--1-----|
D||--------1-3-----3v-|--------1-3-----3--|------------|------------3--|
A||----1-3------------|----1-3------------|--3---------|---------------|
E||--4----------------|--4----------------|------------|---------------|

Letra:
------
Ez ziren garai onak
Basko-bike pila
Zaristek galdu zuten
Zeukaten nagia.
Gazteizgradon zuriak
Arazo larria
Bilbof askatu zuten
Kosako gorriak.
Donosigrado ere
Izan ze askia
Iruñakov herrian
Bandera gorria.
Herriak hartu zuen
Negu jauregia
Hantxe ikusi nuen
Iñakiskidea.

Biktoria egunean
Zioen garraisia:
Gora euskal-rusoak ta
Bodkaren grazia
Iñakiski egin zuten
Soviet buruzagia
Nork pentsa holakorik
¡gizon demontria!
¡ai! ihes egin zuen
Soviet etekinaz
Jamaikan etzanda da
Hartzen eguzkia.
Atzetik joan nintzaion
Ziztu bizi-bizian
Hantxe aurkitu nuen
Palmera azpian.

Arma atera zuen
Nik ere neria
Bi bala sartu ziren nere gorputzian.
Baina jakintzak iñkiski:
Bi puta bala ez direla nahiko
After-boltxebikea hiltzeko

¡after-boltxebike!
¡after-boltxebike!
Suggest correction
Creating personal tab
Creating personal tab
You can edit any tab online and save it as your Personal.

You can edit, replace or remove any tab part or add personal notes – all changes will be seen only by you.

Personal tabs can be accessed anytime from any device, even offline.
Learn more »
Give kudos to tab author, rate the tab!
1 2 3 4 5
comments
print report bad tab
guest
Wanna post a correction for this tab? Suggest correction