Oops, an error
Loading. Please wait.

Don Vito Y La Revuelta En El Frenopatico bass

by Kortatu
202 views 1 this week
no commentswrite comment
1 2 3 4 5
3 more votes to show rating
add to favorites
×
Save as Personal and add changes to this tab that will be seen only by you. Learn more ›
×
You can save this tab as Personal to edit and correct it or add notes. All changes will be seen only by you. Learn more »
launch autoscroll
font size
0
reset
guitar tuner
edit
Autoscroll
slow
fast
+/-
esc
set tempo
stop
--------------|--------------|------------6-|
--------------|--------8-p5--|--------------|
--------6-h9--|-5-h6-6-----6-|--------6-4---|
-6-h7-7-----7-|--------------|-6-h7-7-------|
intro y verso

-------------------------------
-------------*3-4-5-6*---------
-------3-4-6-------------------
-4-6-7-----------------*4-6-7*-
coro
lo que esta entre * va mas rapido

se toca el verso y llega una parte que hace esto:


--------------|-------------|---------------|---------6
--------8-p5--|-------------|--------8-p5---|----------
-5-h6-6-----6-|--------6-h9-|-5-h6-6------6-|-------4--
--------------|-6-h7-7-----7|---------------|-6-h7-7---

y toda la cancion se repite
me sorprende que no hubiera tab de esto =/
la verdad esta bastante facil disfruten
ahi esta basicamente toda la cancion
a algunos no se les van a hacer claros los tiempos
pongan atencion yponganla en orden :D
califiquen ya que esta 100% bien
dudas: claudiold_12@

            
            
Suggest correction
Creating personal tab
Creating personal tab
You can edit any tab online and save it as your Personal.

You can edit, replace or remove any tab part or add personal notes – all changes will be seen only by you.

Personal tabs can be accessed anytime from any device, even offline.
Learn more »
Give kudos to tab author, rate the tab!
1 2 3 4 5
comments
print report bad tab
guest
Wanna post a correction for this tab? Suggest correction