Oops, an error
Loading. Please wait.

Hotel Monbar tab

by Kortatu
171 views 1 this week
no commentswrite comment
1 2 3 4 5
3 more votes to show rating
add to favorites
×
Save as Personal and add changes to this tab that will be seen only by you. Learn more ›
×
You can save this tab as Personal to edit and correct it or add notes. All changes will be seen only by you. Learn more »
launch autoscroll
font size
0
reset
how to read this tab
guitar tuner
edit
Autoscroll
slow
fast
+/-
esc
set tempo
stop
Intro:
------

    F  C  A  A   F  C  A A#    D C# A D C   F  C  A A#   D C# A D C
E||------------|------------|--5----------|------------|-------------|
B||------------|-s6---------|--6----------|------------|-------------|
G||------------|------------|-------------|------------|-------------|
D||------------|------------|-------------|------------|-------------|
A||------------|------------|-------------|------------|-------------|
E||------------|------------|-------------|------------|-------------|

       F      C      A      A#        D      C#     A     D   C
E||----5------5------5------5----|----5------5------5--------------|
B||--6---6--5---5----------------|--6---6--5---5-------------------|
G||----------------6---6--7---7--|----------------6---6---7-7-5-5--|
D||------------------------------|---------------------------------|
A||------------------------------|---------------------------------|
E||------------------------------|---------------------------------|

F G E A#

Estrofa:
--------
A#                           C   D    D C  D   D C D
Excombatientes de la batalla de Argel
A#                           C   D    D C  D   D C D
se encargan de mantener la calma tensa
A#                        A   C
mientras se susurra en el aire denso,
A#          A        C
una vieja canción de guerra
A#             C          A
Una vieja canción de guerra.

Estribilho:
-----------
D
Han vuelto a sonar
A#            F     C
campanadas a la muerte
D
en el hotel Monbar
A#            F     C
campanadas a la muerte
D
cuatro charcos rojos
A#            F     C
Campanadas a la muerte.
D
Han vuelto a sonar
A#            F     C    D C  D   D C D
Campanadas a la muerte.

Letra:
------
Excombatientes de la batalla de Argel
se encargan de mantener la calma tensa
mientras se susurra en el aire denso,
una vieja canción de guerra
Una vieja canción de guerra.
Han vuelto a sonar
campanadas a la muerte
en el hotel Monbar
campanadas a la muerte
cuatro charcos rojos
Campanadas a la muerte.
Han vuelto a sonar
Campanadas a la muerte.
Me he estremecido,
¿Quién pagaría esto?
Un escalofrío,
Me recorre el cuerpo.
Cuatro claveles rojos,
quedan en el recuerdo,
y un sudor frío
Cada vez que lo cuento.
Y un sudor frío
Cada vez que lo cuento.
Suggest correction
Creating personal tab
Creating personal tab
You can edit any tab online and save it as your Personal.

You can edit, replace or remove any tab part or add personal notes – all changes will be seen only by you.

Personal tabs can be accessed anytime from any device, even offline.
Learn more »
Give kudos to tab author, rate the tab!
1 2 3 4 5
comments
print report bad tab
guest
Wanna post a correction for this tab? Suggest correction