Oops, an error
Loading. Please wait.

Mierda De Ciudad bass

by Kortatu
404 views 3 this week
no commentswrite comment
1 2 3 4 5
3 more votes to show rating
add to favorites
×
Save as Personal and add changes to this tab that will be seen only by you. Learn more ›
×
You can save this tab as Personal to edit and correct it or add notes. All changes will be seen only by you. Learn more »
launch autoscroll
font size
0
reset
guitar tuner
edit
Autoscroll
slow
fast
+/-
esc
set tempo
stop
 Intro(x4):
-----------7-------------------------------------------------------------7
-0-0-0-0----9--7-------------5---------------------7--------0-0-0-0---9--7
-----------------------------------7--5----0-0-0-0----9--7----------------
----------------------3-3-3-3---------------------------------------------
 Preverso(x2):
--------------------------------------------------------------4-4---------
-----4-4---7-7---4-4---------------------------------------------7-7---4-4
-5-5----------------------2-2---5-5---2-2-----4-4---7-7----5-5------------
----------------------3-3------------------5-5----------------------------
--------------------------------------------------------------------------
-----4-4---7-7---4-4----------------------------------------4-4---7-7--7-7
-5-5---------------------2-2---5-5---2-2-----4-4---7-7---5-5--------------
---------------------3-3------------------5-5-----------------------------
 Verso:
--------------------------------------------------------------------------
-----4-4---7-7---4-4----------------------------------------4-4---7-7--7-7
-5-5---------------------2-2---5-5---2-2-----4-4---7-7---5-5--------------
---------------------3-3-----------------5-5------------------------------
 Estribillo:
------4----------------------------------------4--------------------------
--------7--4-----2-------------4------------------------------------------
---5-----------------5--2---------7--4----5-----7--4----------------------
---------------3-------------5--------------------------------------------

Aki están todas la partes de la kanción,si en algo os lías eskuxadlo y lo
enkajareis?Sin aun así no os enterais de algo enviadme un korreo o algo
y os ayudare!!
Dudas comentarios etc?garibaldi_7769@
Link de Skalamandra(Ska-punk desde kanillejas) 

            
            
Suggest correction
Creating personal tab
Creating personal tab
You can edit any tab online and save it as your Personal.

You can edit, replace or remove any tab part or add personal notes – all changes will be seen only by you.

Personal tabs can be accessed anytime from any device, even offline.
Learn more »
Give kudos to tab author, rate the tab!
1 2 3 4 5
comments
print report bad tab
guest
Wanna post a correction for this tab? Suggest correction