Oops, an error
Loading. Please wait.

Mierda De Ciudad tab

version 1
version 1

Whole song

by Kortatu
290 views 1 this week
no commentswrite comment
1 2 3 4 5
3 more votes to show rating
add to favorites
×
Save as Personal and add changes to this tab that will be seen only by you. Learn more ›
×
You can save this tab as Personal to edit and correct it or add notes. All changes will be seen only by you. Learn more »
launch autoscroll
font size
0
reset
how to read this tab
guitar tuner
edit
Autoscroll
slow
fast
+/-
esc
set tempo
stop
+ Tabulados de made in spain!                   +
+ [                        +
+++++++++++++++++++++++++++++++++++++++++++++++++

made in spain! 01/10/97
@Tabulado para GUITARRA y BAJO

                           KORTATU : Mierda de Ciudad
                          ----------------------------

   * La tablatura para guitarra esta al final de documento.  *

BAJO:

PRIMERA PARTE
-------------
                                
G|----------------|-10--8----|  
D|----------------|-------10-|  
A|--8----8--8---8-|----------|  
E|----------------|----------|  
    F                F  D  C    
                                
G|----------------|----------|  
D|----------------|--8-------|  
A|----------------|----10--8-|  
E|--6----6--6---6-|----------|
    Bb               Bb G  F

G|----------------|----------|
D|----------------|-10-12----|
A|----------------|-------10-|
E|--8----8--8---8-|----------|
    C                C  A  G

G|----------------|-12-10----|
D|----------------|-------12-|
A|-10---10-10--10-|----------|
E|----------------|----------|
    F                F  D  C


SEGUNDA PARTE
-------------

G|-------------|------------|-------------|-------------| A veces el último
D|-----7-10--7-|------------|-------------|----12-10--7-| (12-10-7) es como
A|--8----------|----5--8--5-|-----7-10--7-|--8----------| el primero (7-10-7)
E|-------------|-6----------|--8----------|-------------|
    F  A  C  A   Bb D  F  D    C  E  G  E    F  D  C  A


GUITARRA

      La guitarra siempre repite los acordes F, Bb, C i F cambiando
   únicamente el tiempo y/o el ritmo.

E|---8--|---6--|---8--|---8--|
B|--10--|---6--|---8--|--10--|
G|--10--|---7--|---9--|--10--|
D|--10--|---7--|---9--|--10--|
A|---8--|---8--|--10--|---8--|
E|------|---6--|---8--|------|
     F      Bb     C      F


LETRA

MIERDA DE CIUDAD
-----------------

Todo este sabado me lo voy a pasar
privando en mi casa hasta rebentar.
Ya estoy harto no quiero salir mas
siempre lo mismo mierda de ciudad.

En la calle tontos que saludar
coches zeta un cacheo en el portal,
Chulos de puta teniendo que aguantar.
Siempre lo mismo mierda de ciudad.

No hace falta que nos lo diga nadie
ya sabemos que es un pataleo gratis
No cambiara nunca esta situación,
siempre lo mismo, mierda de canción

            
            
Suggest correction
Creating personal tab
Creating personal tab
You can edit any tab online and save it as your Personal.

You can edit, replace or remove any tab part or add personal notes – all changes will be seen only by you.

Personal tabs can be accessed anytime from any device, even offline.
Learn more »
Give kudos to tab author, rate the tab!
1 2 3 4 5
comments
print report bad tab
guest
Wanna post a correction for this tab? Suggest correction