Oops, an error
Loading. Please wait.

Sarri Sarri Bass Tab

version 1
version 1

Whole song

Interactive

40 views 1 this week
no commentswrite comment
1 2 3 4 5
3 more votes to show rating
add to favorites
launch autoscroll
font size
0
reset
guitar tuner
Autoscroll
slow
fast
+/-
esc
set tempo
stop
Help us to improve Ultimate-Guitar.com Take our survey!
×
Author
Difficulty
Tuning
intermediate
D# G# C# F# A# D#
Artist : Kortatu
Album : Kortatu
Song : Sarri, Sarri

[Intro]
  4/4
F#|----------------|----------------|----------------|----------------|
C#|------4---------|----------------|------4---------|--7-9-7-9-7-----|
G#|5---5---7-4-----|----------------|5---5---7-4-----|------------9-7-|
D#|--5---------5-7-|--5-7-5-7-5-2-0-|--5---------5-7-|----------------|
   1 + 2 + 3 + 4 +  1 + 2 + 3 + 4 +  1 + 2 + 3 + 4 +  1 + 2 + 3 + 4 +  

F#|----------------|----------------|----------------|----------------|
C#|------4---------|----------------|----------------|--------4---6---|
G#|5---5---7-4-----|----------------|----------------|--4-5-7---------|
D#|--5---------5-7-|--5-7-5-7-5-2-0-|0-2-4---4-5-7---|7---------------|
   1 + 2 + 3 + 4 +  1 + 2 + 3 + 4 +  1 + 2 + 3 + 4 +  1 + 2 + 3 + 4 +


[Verse]

F#|----------------|----------------|----------------|----------------|
C#|7-7-----7-7-----|----------------|----------------|7-7------7r-----|
G#|----9-7-----9-7-|5-5-----5r------|7-7-----7-7-----|----9-7---------| x3
D#|----------------|----7-5---------|----9-7-----9-7-|----------------|
   1 + 2 + 3 + 4 +  1 + 2 + 3 + 4 +  1 + 2 + 3 + 4 +  1 + 2 + 3 + 4 +
   

[Chorus]

F#|----------------|----------------|----------------|----------------|
C#|7-7-----7-7-----|7-7-----7r------|----------------|----------------|
G#|----9-7-----9-7-|----9-7---------|7-7-----7-7-----|7-7-----7r------|
D#|----------------|----------------|----9-7-----9-7-|----9-7---------|
   1 + 2 + 3 + 4 +  1 + 2 + 3 + 4 +  1 + 2 + 3 + 4 +  1 + 2 + 3 + 4 +

F#|----------------|----------------|----------------|----------------|
C#|----------------|----------------|7-7-----7-7-----|7-7-----7r------|
G#|5-5-----5-5-----|5-5-----5r------|----9-7-----9-7-|----9-7---------|
D#|----7-5-----7-5-|----7-5---------|----------------|----------------|
   1 + 2 + 3 + 4  + 1 + 2 + 3 + 4 +  1 + 2 + 3 + 4 +  1 + 2 + 3 + 4 +

[Verse]

F#|----------------|----------------|----------------|----------------|
C#|7-7-----7-7-----|----------------|----------------|7-7------7r-----|
G#|----9-7-----9-7-|5-5-----5r------|7-7-----7-7-----|----9-7---------| x2
D#|----------------|----7-5---------|----9-7-----9-7-|----------------|
   1 + 2 + 3 + 4 +  1 + 2 + 3 + 4 +  1 + 2 + 3 + 4 +  1 + 2 + 3 + 4 +


[Chorus]

F#|----------------|----------------|----------------|----------------|
C#|7-7-----7-7-----|7-7-----7r------|----------------|----------------|
G#|----9-7-----9-7-|----9-7---------|7-7-----7-7-----|7-7-----7r------|
D#|----------------|----------------|----9-7-----9-7-|----9-7---------|
   1 + 2 + 3 + 4 +  1 + 2 + 3 + 4 +  1 + 2 + 3 + 4 +  1 + 2 + 3 + 4 +

F#|----------------|----------------|----------------|----------------|
C#|----------------|----------------|7-7-----7-7-----|7-7-----7r------|
G#|5-5-----5-5-----|5-5-----5r------|----9-7-----9-7-|----9-7---------|
D#|----7-5-----7-5-|----7-5---------|----------------|----------------|
   1 + 2 + 3 + 4  + 1 + 2 + 3 + 4 +  1 + 2 + 3 + 4 +  1 + 2 + 3 + 4 + 

[Break]

F#|----------------|----------------|----------------|----------------|
C#|------4---------|----------------|------4---------|-/9---7-9-7-----|
G#|5---5---7-4-----|----------------|5---5---7-4-----|------------9-7-|
D#|--5---------5-7-|--5-7-5-7-5-2-0-|--5---------5-7-|----------------|
   1 + 2 + 3 + 4 +  1 + 2 + 3 + 4 +  1 + 2 + 3 + 4 +  1 + 2 + 3 + 4 +  

F#|----------------|----------------|----------------|----------------|
C#|------4---------|----------------|----------------|--------4---6---|
G#|5---5---7-4-----|----------------|----------------|--4-5-7---------|
D#|--5---------5-7-|--5-7-5-7-5-2-0-|0-2-4---4-5-7---|7---------------|
   1 + 2 + 3 + 4 +  1 + 2 + 3 + 4 +  1 + 2 + 3 + 4 +  1 + 2 + 3 + 4 +


[Verse]

F#|----------------|----------------|----------------|----------------|
C#|7-7-----7-7-----|----------------|----------------|7-7------7r-----|
G#|----9-7-----9-7-|5-5-----5r------|7-7-----7-7-----|----9-7---------| x4
D#|----------------|----7-5---------|----9-7-----9-7-|----------------|
   1 + 2 + 3 + 4 +  1 + 2 + 3 + 4 +  1 + 2 + 3 + 4 +  1 + 2 + 3 + 4 +


[Chorus]

F#|----------------|----------------|----------------|----------------|
C#|7-7-----7-7-----|7-7-----7r------|----------------|----------------|-|
G#|----9-7-----9-7-|----9-7---------|7-7-----7-7-----|7-7-----7r------| |
D#|----------------|----------------|----9-7-----9-7-|----9-7---------| |
   1 + 2 + 3 + 4 +  1 + 2 + 3 + 4 +  1 + 2 + 3 + 4 +  1 + 2 + 3 + 4 +   |
                                                                        | x2
F#|----------------|----------------|----------------|----------------| |
C#|----------------|----------------|7-7-----7-7-----|7-7-----7r------| |
G#|5-5-----5-5-----|5-5-----5r------|----9-7-----9-7-|----9-7---------|-|
D#|----7-5-----7-5-|----7-5---------|----------------|----------------|
   1 + 2 + 3 + 4  + 1 + 2 + 3 + 4 +  1 + 2 + 3 + 4 +  1 + 2 + 3 + 4 + 


[Solo]

F#|----------------|----------------|----------------|----------------|
C#|7-------7-------|7-------7\6/7---|----------------|----------------|-|
G#|----9-7-----9-7-|----9-7---------|7-------7-------|7-------7\6/7---| |
D#|----------------|----------------|----9-7-----9-7-|----9-7---------| |
   1 + 2 + 3 + 4 +  1 + 2 + 3 + 4 +  1 + 2 + 3 + 4 +  1 + 2 + 3 + 4 +   |
                                                                        | x2
F#|----------------|----------------|----------------|----------------| |
C#|----------------|----------------|7-------7-------|7-7-----7r------| | 
G#|5-------5-------|5-5-----5r------|----9-7-----9-7-|----9-7---------|-|
D#|----7-5-----7-5-|----7-5---------|----------------|----------------|
   1 + 2 + 3 + 4  + 1 + 2 + 3 + 4 +  1 + 2 + 3 + 4 +  1 + 2 + 3 + 4 + 

F#|----------------|----------------|----------------|----------------|
C#|7-7-----7-7-----|----------------|----------------|7-7------7r-----|
G#|----9-7-----9-7-|5-5-----5r------|7-7-----7-7-----|----9-7---------| x2
D#|----------------|----7-5---------|----9-7-----9-7-|----------------|
   1 + 2 + 3 + 4 +  1 + 2 + 3 + 4 +  1 + 2 + 3 + 4 +  1 + 2 + 3 + 4 +


[Chorus]

F#|----------------|----------------|----------------|----------------|
C#|7-------7-------|7-------7\6/7---|----------------|----------------|-|
G#|----9-7-----9-7-|----9-7---------|7-------7-------|7-------7\6/7---| |
D#|----------------|----------------|----9-7-----9-7-|----9-7---------| |
   1 + 2 + 3 + 4 +  1 + 2 + 3 + 4 +  1 + 2 + 3 + 4 +  1 + 2 + 3 + 4 +   |
                                                                        | x2
F#|----------------|----------------|----------------|----------------| |
C#|----------------|----------------|7-------7-------|7-7-----7r------| | 
G#|5-------5-------|5-5-----5r------|----9-7-----9-7-|----9-7---------|-|
D#|----7-5-----7-5-|----7-5---------|----------------|----------------|
   1 + 2 + 3 + 4  + 1 + 2 + 3 + 4 +  1 + 2 + 3 + 4 +  1 + 2 + 3 + 4 + 

[Intelude]

F#|----------------|----------------|----------------|----------------|
C#|------4---------|----------------|------4---------|-/9---7-9-7-----|
G#|5---5---7-4-----|----------------|5---5---7-4-----|------------9-7-|
D#|--5---------5-7-|--5-7-5-7-5-2-0-|--5---------5-7-|----------------|
   1 + 2 + 3 + 4 +  1 + 2 + 3 + 4 +  1 + 2 + 3 + 4 +  1 + 2 + 3 + 4 +  

F#|----------------|----------------|----------------|---------19/----|
C#|------4---------|----------------|---wait-quite-a-|----------------|
G#|5---5---7-4-----|----------------|----long-time---|----------------|
D#|--5---------5-7-|--5-7-5-7-5-2-0-|0---------------|----------------|
   1 + 2 + 3 + 4 +  1 + 2 + 3 + 4 +  1 .............. 1 + 2 + 3 + 4 +


[Chorus]

F#|----------------|----------------|----------------|----------------|
C#|7-------7-------|7-------7\6/7---|----------------|----------------|
G#|----9-7-----9-7-|----9-7---------|7-------7-------|7-------7\6/7---|
D#|----------------|----------------|----9-7-----9-7-|----9-7---------|
   1 + 2 + 3 + 4 +  1 + 2 + 3 + 4 +  1 + 2 + 3 + 4 +  1 + 2 + 3 + 4 +

F#|----------------|----------------|----------------|----------------|
C#|----------------|----------------|7-------7-------|7-7-----7r------|
G#|5-------5-------|5-5-----5r------|----9-7-----9-7-|----9-7---------| fade out
D#|----7-5-----7-5-|----7-5---------|----------------|----------------|
   1 + 2 + 3 + 4  + 1 + 2 + 3 + 4 +  1 + 2 + 3 + 4 +  1 + 2 + 3 + 4 + 

************************************

| r   Release
| /   Slide up
| \   Slide down

************************************
Suggest correction
Give kudos to tab author, rate the tab!
1 2 3 4 5
comments
print report bad tab
guest
You may want to rate the tab now too:
select rating
Wanna post a correction for this tab? Suggest correction