Oops, an error
Loading. Please wait.

Beraksi Tab

version 1
version 1

Whole song

Interactive

55,035 views 42 this week
1 commentread comment
1 2 3 4 5
1 last vote to show rating
add to favorites
launch autoscroll
font size
0
reset
how to read this tab
guitar tuner
Autoscroll
slow
fast
+/-
esc
set tempo
stop
Help us to improve Ultimate-Guitar.com Take our survey!
×
Author
Artist  : KOTAK
Song    : Beraksi
Made by : Est
Email   : Iam_mrs_L@yahoo.com


[Intro]

e|-------------------------|----------------------||
B|-------------------------|----------------------||
G|-------------------------|----------------------||
D|-7-7--7\8--8/0-0--0-1--1-|-7-7--\8-8/0--1--3--5-||
A|-5-5--5\6--6/0-0--0-1--1-|-5-5--\6-6/0--1--3--3-||
E|-------------0-0--0-1--1-|-----------0--1--3----||(x3)


[Verse 1]

e|-----------------------||
B|-----------------------||
G|-----------------------||
D|-7-7-10-7\12-7-7-10-12-||
A|-5-5-8--5\10-5-5-8--10-||
E|-----------------------||


Semua berdiri.
e|-------------------------------||------------------------------------------------||
B|-------------------------------||------------------------------------------------||
G|-------------------------------||------------------------------------------------||
D|-5-5-5-5-5-5-5-3-3-3-3-5-5-5-5-||-7-7--7\8--8/0-0--0-1--1---7-7-\8--8/0--1--3--5-||
A|-5-5-5-5-5-5-5-3-3-3-3-3-3-3-3-||-5-5--5\6--6/0-0--0-1--1---5-5-\6--6/0--1--3--3-||
E|-5-5-5-5-5-5-5-3-3-3-3---------||-------------0-0--0-1--1-------------0--1--3----||



[Verse 2]
(same as verse 1)


Alunan distorsi.
e|-------------------------------||
B|-------------------------------||
G|-------------------------------||
D|-5-5-5-5-5-5-5-3-3-3-3-5-5-5-5-||
A|-5-5-5-5-5-5-5-3-3-3-3-3-3-3-3-||
E|-5-5-5-5-5-5-5-3-3-3-3---------||


[Chorus]

e|----------------------------------------------------------||
B|----------------------------------------------------------||
G|----------------------------------------------------------||
D|-7-7--0-1-1--5\7--0-1-1--5\7--0-1-1-5\7-7-7-7-12-12-12-12-||
A|-5-5--0-1-1--3\5--0-1-1--3\5--0-1-1-3\5-5-5-5-10-10-10-10-||
E|------0-1-1-------0-1-1-------0-1-1-----------------------||(x2)



[Bridge]

e|-----------------------------------||
B|-----------------------------------||
G|-----------------------------------||
D|-7-7-7-7-7-10-10-0-3-3-3-3-3-5-5-5-||
A|-5-5-5-5-5-8--8--0-1-1-1-1-1-3-3-3-||
E|-----------------0-----------------||(x8)



e|-------------||
B|-------------||
G|-------------||
D|-7-7--0-13/~-||       
A|-5-5--0------||
E|------0------||
          *

[Back to Chorus]

[Then Intro]



************************************

| /  Slide up
| \  Slide down
| ~  vibrato

************************************
Suggest correction
Give kudos to tab author, rate the tab!
1 2 3 4 5
comments
print report bad tab
1 comment total.
0 reply
meddusapitbull 10 Jul 27, 2016 05:31 AM

drop d or not?

guest
You may want to rate the tab now too:
select rating
Wanna post a correction for this tab? Suggest correction