Oops, an error
Loading. Please wait.

Beraksi Tab

version 2
version 2

Whole song

Interactive

11,343 views 3 this week
no commentswrite comment
1 2 3 4 5
please rate
add to favorites
launch autoscroll
font size
0
reset
how to read this tab
guitar tuner
Tab Pro tools
  • play this tab
  • loop segment
  • change instrument
  • show fretboard
  • metronome
×
Best way to learn
"Beraksi"
Autoscroll
slow
fast
+/-
esc
set tempo
stop
Contributor
Song            : Beraksi
Artist          : Kotak
Tabbed by       : SuGa, NT

|---------------------------------------------------------|
|---------------------------------------------------------|
|------7/8---7---------------------7/8---7---------------5|
|-0-x--x-x-0-x--0-x--3/5-0-1--0-x--x-x-0-x-----0---3--5--5|
|-0-x--5/6-0-5--0-x--3/5-0-1--0-x--5/6-0-5-----0---3--5--3|
|-0-x------0----0-x--3/5-0-1--0-x------0-------0---3--5---|

|---------------------------------------------------------|
|---------------------------------------------------------|
|------7/8---7---------------------7/8---7---------------5|
|-0-x--x-x-0-x--0-x--3/5-0-1--0-x--x-x-0-x-----0---3--5--5|  2X
|-0-x--5/6-0-5--0-x--3/5-0-1--0-x--5/6-0-5-----0---3--5--3|
|-0-x------0----0-x--3/5-0-1--0-x------0-------0---3--5---|



|---------------------------------------------------------|
|---------------------------------------------------------|
|---------------------------------------------------------|
|-------------3-3-------------5-5-------------------------|  6X
|-5-555-3-5-3-----5-555-3-5-3-----5-----------------------|
|---------------------------------------------------------|

|---------------------------------------------------------|
|---------------------------------------------------------|
|---------------------------------------------------------|
|-5-5-5-5-5-5-5-5-3-3-3-3-5-5-5-5-------------------------|
|-5-5-5-5-5-5-5-5-3-3-3-3-3-3-3-3-------------------------|
|-5-5-5-5-5-5-5-5-3-3-3-3---------------------------------|

|---------------------------------------------------------|
|---------------------------------------------------------|
|------7/8---7---------------------7/8---7---------------5|
|-0-x--x-x-0-x--0-x--3/5-0-1--0-x--x-x-0-x-----0---3--5--5|
|-0-x--5/6-0-5--0-x--3/5-0-1--0-x--5/6-0-5-----0---3--5--3|
|-0-x------0----0-x--3/5-0-1--0-x------0-------0---3--5---|



|---------------------------------------------------------|
|---------------------------------------------------------|
|---------------------------------------------------------|
|-------------3-3-------------5-5-------------------------|  4X
|-5-555-3-5-3-----5-555-3-5-3-----5-----------------------|
|---------------------------------------------------------|

|---------------------------------------------------------|
|---------------------------------------------------------|
|---------------------------------------------------------|
|-5-5-5-5-5-5-5-5-3-3-3-3-5-5-5-5-------------------------|
|-5-5-5-5-5-5-5-5-3-3-3-3-3-3-3-3-------------------------|
|-5-5-5-5-5-5-5-5-3-3-3-3---------------------------------|

|-----------------   |------------------------------------|
|-----------------   |------------------------------------|
|--------------^--   |------------------------------------|
|-0-x-x-0-x-0--5--3X |-3-3-3-3-5-5-5-5--------------------|
|-0-x-x-0-x-0--3--   |-3-3-3-3-3-3-3-3--------------------|
|-0-x-x-0-x-0-----   |-3-3-3-3----------------------------|

|-----------------   |------------------------------------|
|-----------------   |------------------------------------|
|--------------^--   |------------------------------------|
|-0-x-x-0-x-0--5--3X |-3-3-3-3-5-5-5-5--------------------|
|-0-x-x-0-x-0--3--   |-3-3-3-3-3-3-3-3--------------------|
|-0-x-x-0-x-0-----   |-3-3-3-3----------------------------|



|---------------------------------------------------------|
|---------------------------------------------------------|
|---------------------------------------------------------|
|---------------------------------------------------------|
|-3/5-5-5-5-/8-8-8--1-1-1-1-3-3-3-3-----------------------|
|---------------------------------------------------------|

|---------------------------------------------------------|
|---------------------------------------------------------|
|---------------------------------------------------------|
|---------------------------------------------------------|
|-3/5-5-5-5-/8-8-8--1-1-1-1-------------------------------|
|---------------------------5-5-5-5-----------------------|

|---------------------------------------------------------|
|---------------------------------------------------------|
|---------------------------------------------------------|
|---------------------------------------------------------|
|-3/5-5-5-5-/8-8-8--1-1-1-1-3-3-3-3-----------------------|
|---------------------------------------------------------|

|---------------------------------------------------------|
|---------------------------------------------------------|
|---------------------------------------------------------|
|---------------------------------------------------------|
|-3/5-5-5-5-/8-8-8--1-1-1-1-------------------------------|
|---------------------------5-5-5-5-----------------------|



|---------------------------------------------------------|
|---------------------------------------------------------|
|---------------------------------------------------------|
|-3/5-5-5-5-/8-8-8--1-1-1-1-3-3-3-3-----------------------|
|-3/5-5-5-5-/8-8-8--1-1-1-1-3-3-3-3-----------------------|
|---------------------------------------------------------|

|---------------------------------------------------------|
|---------------------------------------------------------|
|---------------------------------------------------------|
|-3/5-5-5-5-/8-8-8--1-1-1-1-5-5-5-5-----------------------|
|-3/5-5-5-5-/8-8-8--1-1-1-1-5-5-5-5-----------------------|
|---------------------------5-5-5-5-----------------------|

|---------------------------------------------------------|
|---------------------------------------------------------|
|---------------------------------------------------------|
|-3/5-5-5-5-/8-8-8--1-1-1-1-3-3-3-3-----------------------|
|-3/5-5-5-5-/8-8-8--1-1-1-1-3-3-3-3-----------------------|
|---------------------------------------------------------|

|---------------------------------------------------------|
|---------------------------------------------------------|
|---------------------------------------------------------|
|-3/5-5-5-5-/8-8-8--1-1-1-1-5-5-5-5-----------------------|
|-3/5-5-5-5-/8-8-8--1-1-1-1-5-5-5-5-----------------------|
|---------------------------5-5-5-5-----------------------|



|---------------------------------------------------------|
|---------------------------------------------------------|
|---------------------------------------------------------|
|-0-0--x--------------------------------------------------|
|-0-0--x-ph3~~--------------------------------------------|
|-0-0--x--------------------------------------------------|
  * *
|-----------------   |------------------------------------|
|-----------------   |------------------------------------|
|--------------^--   |------------------------------------|
|-0-x-x-0-x-0--5--3X |-3-3-3-3-5-5-5-5--------------------|
|-0-x-x-0-x-0--3--   |-3-3-3-3-3-3-3-3--------------------|
|-0-x-x-0-x-0-----   |-3-3-3-3----------------------------|

|-----------------   |------------------------------------|
|-----------------   |------------------------------------|
|--------------^--   |------------------------------------|
|-0-x-x-0-x-0--5--3X |-3-3-3-3-5-5-5-5--------------------|
|-0-x-x-0-x-0--3--   |-3-3-3-3-3-3-3-3--------------------|
|-0-x-x-0-x-0-----   |-3-3-3-3----------------------------|

|---------------------------------------------------------|
|---------------------------------------------------------|
|------7/8---7---------------------7/8---7---------------5|
|-0-x--x-x-0-x--0-x--3/5-0-1--0-x--x-x-0-x-----0---3--5--5| 2x
|-0-x--5/6-0-5--0-x--3/5-0-1--0-x--5/6-0-5-----0---3--5--3|
|-0-x------0----0-x--3/5-0-1--0-x------0-------0---3--5---|

|---------------------------------------------------------|
|---------------------------------------------------------|
|---------------------------------------------------------|
|-0-0-----------------------------------------------------|
|-0-0-----------------------------------------------------|
|-0-0-----------------------------------------------------|
  * *

hope u  like it
thanx...plz rate it ^^

lov wid
comments
We did not receive enough feedback on this tab! Please rate:
print report bad tab
1 2 3 4 5
I want to post or [tab]
guest
You may want to rate the tab now too:
select rating
Please do not post tabs as comments. Select "correction" instead!