Oops, an error
Loading. Please wait.

Dyin Daze Tab

243 views 1 this week
no commentswrite comment
1 2 3 4 5
please rate
add to favorites
launch autoscroll
font size
0
reset
how to read this tab
guitar tuner
Autoscroll
slow
fast
+/-
esc
set tempo
stop
Help us to improve Ultimate-Guitar.com Take our survey!
×
-------------------------------------------------------------------------------
                             DYIN' DAZE - Kottonmouth Kings
-------------------------------------------------------------------------------
Tabbed by: Dave "Alhazred"
Email: Blackandsilver@live.com

Tuning: Standard

-Intro-
e|-----------------------------------------|
B|-----------------------------------------|
G|---5==------10==-------------------------|
D|---5==------10==-----10==-----5==-------5|
A|---3==-------8==-----10==-----5==-------5|
E|----------------------8==-----3==-------3|


-Chorus-
e|----------------------------------------------------|
B|----------------------------------------------------|
G|---5-5-5-5---10-10-10-10-----------------12-12-12-12|
D|---5-5-5-5---10-10-10-10---10-10-10-10---12-12-12-12|
A|---3-3-3-3----8--8--8--8---10-10-10-10---10-10-10-10|
E|----------------------------8--8--8--8--------------|


-Verse-
e|-------------------------------------|
B|-------------------------------------|
G|-------5-------10------------------12|
D|-------5-------10-------10---------12|
A|---3-3-3---8-8--8-------10---10-10-10|
E|--------------------8-8--8-----------|
     . .     . .      . .      .  .

e|---------------------------------------------|
B|---------------------------------------------|
G|-------5-------10-----------------------12-12|
D|-------5-------10---10-10-10-10-10-10---12-12|
A|---3-3-3---8-8--8---10-10-10-10-10-10---10-10|
E|---------------------8--8--8--8--8--8--------|
     . .     . .


-"Ridin' till my dyin' daze"-      X3
e|-----------------------------------|----|
B|-----------------------------------|----|
G|-----------------------------------|----|
D|---10==-----12=--------------------|--12|
A|---10==-----12=---12-12-12-12-12-12|--12|
E|----8==-----10=---10-10-10-10-10-10|--10|

-Rap Part-
e|---------|
B|---------|
G|---8-7---|
D|---8-7---|
A|---6-5---|
E|---------|
Suggest correction
Give kudos to tab author, rate the tab!
1 2 3 4 5
comments
print report bad tab
guest
You may want to rate the tab now too:
select rating
Wanna post a correction for this tab? Suggest correction