Oops, an error
Loading. Please wait.

Tangerine Sky Tab

version 1
version 1

Intro

Whole song

Interactive

7,171 views 1 this week
1 commentread comment
1 2 3 4 5
1 last vote to show rating
add to favorites
launch autoscroll
font size
0
reset
how to read this tab
guitar tuner
Autoscroll
slow
fast
+/-
esc
set tempo
stop
Help us to improve Ultimate-Guitar.com Take our survey!
×
Author
  intro (x3)
e|-------------------------------------------------------------------------|
B|-------------------------------------------------------------------------|
G|-------8------------5----------4---------3-------------------------------|
D|----9----9--------6----6-----5---5-----4---3-----------------------------|
A|-------------------------------------------------------------------------|
E|-7-------------4-----------3--------2------------------------------------|

  verse (x28)
e|-------------------------------------------------------------------------|
B|----------3-----------------4------------3----------------2--------------|
G|-------4-----4-----------5----5--------4----4----------3-----3-----------|
D|-5-55--------------6-66-----------5-55----------4-44---------------------|
A|-------------------------------------------------------------------------|
E|-------------------------------------------------------------------------|

  pre-chorus (before 2nd chorus) (x2)
e|-------------------------------------------------------------------------|
B|-------------------------------------------------------------------------|
G|-------------------------------------------------------------------------|
D|-------------------------------------------------------------------------|
A|-------------------------------------------------------------------------|
E|-----777777--444444--33333432222222--------------------------------------|

order:
intro
verse (reapeat till pre chorus)
pre-chorus
intro part (again twice)
verse (till the intro part comes in again)
intro part (till end)
Suggest correction
Give kudos to tab author, rate the tab!
1 2 3 4 5
comments
print report bad tab
1 comment total.
0 reply
csensesfail92 30 Jan 07, 2010 06:50 PM

the new version of the song is the intro made into bar chords like this:
|-------------------------7------|
|-------------------------7------|
|----8--------------------8------|
|---9--9------------------9------|
|---------becomes---------9------|
|-7-----------------------7------|
down down up down up...

guest
You may want to rate the tab now too:
select rating
Wanna post a correction for this tab? Suggest correction