Oops, an error
Loading. Please wait.

More Than You tab

by Koven
2,692 views 15 this week
2 commentsread comments
1 2 3 4 5
x 10
add to favorites
×
Save as Personal and add changes to this tab that will be seen only by you. Learn more ›
×
You can save this tab as Personal to edit and correct it or add notes. All changes will be seen only by you. Learn more »
launch autoscroll
font size
0
reset
how to read this tab
guitar tuner
edit
Autoscroll
slow
fast
+/-
esc
set tempo
stop
Author
Difficulty
Koven - More Than You

'More Than You' is the first single from new Viper Recordings signing Koven, following 
their debut free EP 'Wake You Up', released in December 2011 and featured on UKF Dubstep.

Artist: http://www.viperrecordings.co.uk/artist/1000056/koven
Track : https://www.youtube.com/watch?v=cngFaHM0u9w

Excellent dubstep, sounds great on guitar.
Feel free to rate and comment. :)


Capo   - 3rd
Tuning - Standard

Intro( x2 ):

|-------------------------------------------------------------------------------------------------|
|-------------------------------------------------------------------------------------------------|
|-------------------------------------------------------------------------------------------------|
|----------------------------------------------2-----0-----0-----0-----2--------------------------|
|----2-----2-----2-----1-----2-----2-----2--0-0-0-2-2-2-2-2-2-2-2-2-0-0-0----2-----2-----2-----1--|
|-0-0-0-0-0-0-0-0-0-2-2-2-3-3-3-3-3-3-3-3-3-------------------------------3-3-3-3-3-3-3-3-3-2-2-2-|

  *melody in 2nd repeat
|---------10-8-10-8---------------10-8-10-8---------------10-8-10-8-------------------------------|
|-------------------8----8-10---------------8-----------------------8----8-10---------------------|
|------------------------------------------------7-7----------------------------------------------|
|-------------------------------------------------------------------------------------------------|
|-------------------------------------------------------------------------------------------------|
|-------------------------------------------------------------------------------------------------|


Verse( x2 ):

|-------------------------------------------------------------------------------------------------|
|-------------------------------------------------------------------------------------------------|
|-------------------------------------------------------------------------------------------------|
|----------------------------------------------2-----0-----0-----0-----2--------------------------|
|----2-----2-----2-----1-----2-----2-----2--0-0-0-2-2-2-2-2-2-2-2-2-0-0-0----2-----2-----2-----1--|
|-0-0-0-0-0-0-0-0-0-2-2-2-3-3-3-3-3-3-3-3-3-------------------------------3-3-3-3-3-3-3-3-3-2-2-2-|


Chorus - intrumental(strum, x6, last repeat ends at last G chord):

  Em                F#    G                 A     Bm                A     G              
   F#
|-0-----------------2-----3-----------------0-----2-----------------0-----3-----------------2-----|
|-0-----------------2-----3-----------------2-----3-----------------2-----3-----------------2-----|
|-0-----------------3-----0-----------------2-----4-----------------2-----0-----------------3-----|
|-2-----------------4-----0-----------------2-----4-----------------2-----0-----------------4-----|
|-2-----------------4-----2-----------------0-----2-----------------0-----2-----------------4-----|
|-0-----------------2-----3-----------------------------------------------3-----------------2-----|

  *melody in 5th and 6th repeat
|---------10-8--------------------10-8--------------------10-8------------------------------------|
|-----------------8----8-10---------------8-----------------------8----8-10-----------------------|
|-----------------------------------------------7-7-----------------------------------------------|
|-------------------------------------------------------------------------------------------------|
|-------------------------------------------------------------------------------------------------|
|-------------------------------------------------------------------------------------------------|


Verse( x2 )

Pause

Chorus - instrumental(x4, last repeat ends at last G chord)


Outro( x2 )

|---------10-8-10-8---------------10-8-10-8---------------10-8-10-8-------------------------------|
|-------------------8----8-10---------------8-----------------------8----8-10---------------------|
|------------------------------------------------7-7----------------------------------------------|
|-------------------------------------------------------------------------------------------------|
|-------------------------------------------------------------------------------------------------|
|-------------------------------------------------------------------------------------------------|

Lyric:

Now I'm breathing more than air in this fire I've found.
The hidden cloud.
On the head of someone true.
And now I see, he's more than you.

More than you...

Now I'm breathing more than air in this fire I've found.
The hidden cloud.
On the head of someone true.
And now I see, he's more than you.

He's more than you.
More than you...

            
            
Suggest correction
Creating personal tab
Creating personal tab
You can edit any tab online and save it as your Personal.

You can edit, replace or remove any tab part or add personal notes – all changes will be seen only by you.

Personal tabs can be accessed anytime from any device, even offline.
Learn more »
comments
print report bad tab
2 comments total.
0 reply
andrypon 10 Jul 18, 2016 08:16 AM

i think the intro con be changed:

the part of:

|-------------------------------------------------------
|-------------------------------------------------------
|-------------------------------------------------------
|--------------------(--2-)----0-----0-----0---(--2-)---
|----2-----2-----2--(0-0-0)-2-2-2-2-2-2-2-2-2-(0-0-0)---
|-3-3-3-3-3-3-3-3-3-------------------------------------

i think it sounds better in this way:

|-------------------------------------------------------
|-------------------------------------------------------
|-------------------------------------------------------
|------------------------------0-----0-----0------------
|----2-----2-----2---(--4-)-2-2-2-2-2-2-2-2-2-(--4-)----
|-3-3-3-3-3-3-3-3-3-(5-5-5)------------------(5-5-5)----

nice job by the way :)

guest
You may want to rate the tab now too:
select rating
Wanna post a correction for this tab? Suggest correction