Oops, an error
Loading. Please wait.

Animatronic album tab

699 views 3 this week
2 commentsread comments
1 2 3 4 5
1 last vote to show rating
add to favorites
×
Save as Personal and add changes to this tab that will be seen only by you. Learn more ›
×
You can save this tab as Personal to edit and correct it or add notes. All changes will be seen only by you. Learn more »
launch autoscroll
font size
0
reset
how to read this tab
guitar tuner
edit
Autoscroll
slow
fast
+/-
esc
set tempo
stop
Author
Difficulty
intermediate
----------------------------------------------------------------------------
                             Animatronic - The Kovenant
----------------------------------------------------------------------------
Tabbed by:Derz
Email:phillip55@web.de

5/10/07

Corrected: 22/11/07

So any questions just ask?
it took 4 days to tab that all.

All Music and Lyrics by the Kovenant except Spaceman by Babylon Zoo!
Please Don´t Copy this to other Pages, but you can Ask me if you can copy it!

1.Mirrors Paradise

Tuning:EADGBe

Riff1:x2
e|-------------------------------------------------------------------------|
B|-------------------------------------------------------------------------|
G|-------------------------------------------------------------------------|
D|-----------------55-44----55555555-4444-4--------------------------------|
A|-2-2-2-2-222-2-2-33-22-x3-33333333-2222-2-x1-----------------------------|
E|-0-0-0-0-000-0-0---------------------------------------------------------|

Riff2:x8
e|-------------------------------------------------------------------------|
B|-------------------------------------------------------------------------|
G|-------------------------------------------------------------------------|
D|--2--2------2-7-5--------------------------------------------------------|
A|--2--2-5h7--2-5-3--------------------------------------------------------|
E|-0--0------0-------------------------------------------------------------|

Riff3:x1
e|-------------------------------------------------------------------------|
B|-------------------------------------------------------------------------|
G|-------------------------------------------------------------------------|
D|-----------------------55-555--------------------------------------------|
A|-22-222-22-222-77-777--33-333--22-222-22-222-77-777-1010101010-----------|
E|-00-000-00-000-55-555----------00-000-00-000-55-555-8-8-8-8-8------------|
Riff2:x8
Riff3:x1
Riff2:x1

Chorus:x4
e|-------------------------------------------------------------------------|
B|-------------------------------------------------------------------------|
G|-------------------------------------------------------------------------|
D|-7/9-999-7/9-999-7/9-555-4/5-555-----------------------------------------|
A|-5/7-777-5/7-777-5/7-333-2/3-333-----------------------------------------|
E|-------------------------------------------------------------------------|
Riff2:x4

Riff4:x4
e|-------------------------------------------------------------------------|
B|-------------------------------------------------------------------------|
G|-------------------------------------------------------------------------|
D|-99999-99999---99999-7-5-------------------------------------------------|
A|-77777-77777---77777-5-3-------------------------------------------------|
E|-------------------------------------------------------------------------|
Riff3:x1

Solo Rhytm:x6
e|-------------------------------------------------------------------------|
B|-------------------------------------------------------------------------|
G|------------3^-----------------------------------------------------------|
D|-------------------------------------------------------------------------|
A|-22-2222-22---33-3333-333-33---------------------------------------------|
E|-00-0000-00---11-1111-111-11---------------------------------------------|

SOLO:
e|-------3-7-12-14-12-7-3---------------10-13-15-17-15-13-10---------------|
B|------5----------------5------------10--------------------10-------------|
G|-----4------------------4-------7-10------------------------10-7---------|
D|--2-5--------------------5-2-3-7--------------------------------7--------|
A|-------------------------------------------------------------------------|
E|-------------------------------------------------------------------------|

e|------3-7-12-14-12-7-3---------------------------------------------------|
B|-----5----------------5--------------------------------------------------|
G|----4------------------4------------2------------------------------------|
D|-2-5--------------------5-2--3-2-3-5-5-3-5-2--7h10p9-7h10p9-7h10p9-7-----|
A|-------------------------------------------------------------------------|
E|-------------------------------------------------------------------------|

e|-----------------------5-7-8-10------------------------------------------|
B|-8h11p10-8h11p10-8-10~--6-6-6--6-----------------------------------------|
G|-------------------------------------------------------------------------|
D|-------------------------------------------------------------------------|
A|-------------------------------------------------------------------------|
E|-------------------------------------------------------------------------|

Chorus:x6

END RIFF:x1

e|-------------------------------------------------------------------------|
B|-------------------------------------------------------------------------|
G|-------------------------------------------------------------------------|
D|--2-2-7-7-5--------------------------------------------------------------|
A|--2-2-5-5-3-2------------------------------------------------------------|
E|-0-0-0------0------------------------------------------------------------|

Thats it?

2.New World Order

Standard Tuning

Riff 1:x4
 e|--------------------------------|
 b|--------------------------------|
 G|--------------------------------|
 D|--------------------------------|
 A|-2-2-2-2-22222---2-2-2-2-22223--|
 E|-0-0-0-0-00000---0-0-0-0-00001--|
You just have to figure out the rhytm!

Riff 2: x 1
e|----------------------------|
B|----------------------------|
G|----------------------------|
D|--23232322------------------|
A|--23232322------------------|
E|----------------------------|
     . .   .   ....   . . . .

Riff 3: x4 i think this isn´t so wrong but i am not pretty sure about this!

e|----------------------------|
b|----------------------------|
G|------3^--------------------|
D|-2222-----------------------|
A|-2222---x3-55-33--x1--------|
E|-----------33-11------------|
^:Bending

Riff 4: x
e|-----------------------------|
B|-----------------------------|
G|-----------------------------|
D|-2-5-7-----222-----77--------|
A|-2-5-5-x4--222--55-55-x4-----|
E|-0-3-5-----000--33-55--------|
   (female
    voice
    with
    lex)

Riff 1: x 4
Riff 3: x 4
Riff 4: x 1

Riff 5 :x4

e|---------------------------------------------------------|
B|---------------------------------------------------------|
G|---------------------------------------------------------|
D|-------------------------------------------------------10|
A|-7-10-9-7h9h107-7h9h107-10-9-8-7-10-9-7h9h107-7h9h107----|
E|---------------------------------------------------------|

Riff6:x8

e|--------------------------------------|
B|--------------------------------------|
G|--------------------------------------|
D|-----9--------------------------------|
A|-7777-777-10-9-8----------------------|
E|--------------------------------------|

Solo:
Later

Solo Rhytm is Riff 5

Riff4:1

Riff:2

END

3. Mannequin

Tuning:Standard

Riff1:x4
e|----------------------------------------------------------|
B|----------------------------------------------------------|
G|----------------------------------------------------------|
D|----------------------------------------------------------|
A|-5-5-5-5-5xx--8-8-8-8-8xx--1010101010xx-12-12-12-12-12xx--|
E|-3-3-3-3-3xx--6-6-6-6-6xx--8-8-8-8-8xx--10-10-10-10-10xx--|
Keyboard...

Riff2:x1
e|--------------------------------------------|
B|--------------------------------------------|
G|--------------------------------------------|
D|--------------------------------------------|
A|-5-8-6----55555555-8888-6666----------------|
E|-3-6-4-x2-33333333-6666-4444-x2-------------|
          PM..................

Riff1:x4
Keyboard....
Riff2:x1

Riff3:x4
e|--------------------------------------------------|
B|--------------------------3333--------------------|
G|--------------------------3333--------------------|
D|---------------5----------------------------------|
A|-5555-5555-8-6-5-5555-5555------------------------|
E|-3333-3333-6-4---3333-3333------------------------|


SOLO Rhytm:Play during the solo!
e|-------------------------------------------|
B|-------------------------------------------|
G|-------------------------------------------|
D|----------------------------------1111-1111|
A|-5555-5555--5555-5555--3333-3333--1111-1111|
E|-3333-3333--3333-3333--1111-1111-----------|

SOLO
e|--------5-8-6-5-3-5-6-8-6-5h6p5-3-1-1h3p2-1h3p2-3h6p5-3h6p5-3h6p5-3h6p5-|
B|-3^33-3^----------------------------------------------------------------|
G|------------------------------------------------------------------------|
D|------------------------------------------------------------------------|
A|------------------------------------------------------------------------|
E|------------------------------------------------------------------------|

e|-3h6p5-3h6p5-3h6p5--9^999-9^-5/6-66/8-88/10-1010\8-15h14p12-10h9p7-3h6p5-|
B|-------------------------------------------------------------------------|
G|-------------------------------------------------------------------------|
D|-------------------------------------------------------------------------|
A|-------------------------------------------------------------------------|
E|-------------------------------------------------------------------------|

e|-15^-15^-3h6p5-3h6p5-3h6p5-3h6p5-15^-3h6p5-3h6p5-3h6p5-3h6p5-888-6-5-333-|
B|-------------------------------------------------------------------------|
G|-------------------------------------------------------------------------|
D|-------------------------------------------------------------------------|
A|-------------------------------------------------------------------------|
E|-------------------------------------------------------------------------|

e|-1-0---------------------------------------------------------------------|
B|-------------------------------------------------------------------------|
G|-------------------------------------------------------------------------|
D|-------------------------------------------------------------------------|
A|-------------------------------------------------------------------------|
E|-------------------------------------------------------------------------|

Riff1:x12

END!

4.Sindrom

Tuning:DADGBe

Riff1:x2
e|-------------------------------------------------------------------------|
B|-------------------------------------------------------------------------|
G|-------------2^----------------------------------------------------------|
D|-------------------------------------------------------------------------|
A|-555-333-555-------------------------------------------------------------|
E|-555-333-555-------------------------------------------------------------|

Riff2:x1
Part1 :x2                                  Part2:x1 and then Part1 again!
e|------------------------------------|------------------------------------|
B|------------------------------------|------------------------------------|
G|-------------2^---------------------|------------------------------------|
D|------------------------------------|-------------1^---------------------|
A|-555-333-555---555-333--------------|-333-111-333------------------------|
E|-555-333-555---555-333--5-3-2-1-0-x2|-333-111-333----x1------------------|

Riff3:x1
e|-------------------------------------------------------------------------|
B|-------------------------------------------------------------------------|
G|-------------------------------------------------------------------------|
D|-------------------------------------------------------------------------|
A|-5-3-1-0-1---------------------------------------------------------------|
E|-5-3-1-0-1-x2-555-333-111-0-1-0-x2---------------------------------------|

Riff1:x2
Riff2:x1
Riff3:x1

Riff4:x3
e|-------------------------------------------------------------------------|
B|-------------------------------------------------------------------------|
G|-------------------------------------------------------------------------|
D|-------------------------------------------------------------------------|
A|-5---8---4---4/5---------------------------------------------------------|
E|-5---8---4---4/5---------------------------------------------------------|

Riff5:x2
e|-------------------------------------------------------------------------|
B|-------------------------------------------------------------------------|
G|-------------------------------------------------------------------------|
D|-------------------------------------------------------------------------|
A|-55-5-5-5-5-88-44-4-4-4-4-77---------------------------------------------|
E|-55-5-5-5-5-88-44-4-4-4-4-77---------------------------------------------|

Riff6:
e|-------------------------------------------------------------------------|
B|-------------------------------------------------------------------------|
G|-------------------------------------------------------------------------|
D|-------------------------------------------------------------------------|
A|-5xx-3xx-1xx-00----555555-333333-111111----------------------------------|
E|-5xx-3xx-1xx-00-x2-555555-333333-111111-0-0-0-0-x2-----------------------|

Solo:

                               (..............Fast Picking.............)
e|---------------------------------------------------------------------^18-|
B|-11-11-10-10-8-8--------------------------------------8h10h11-8h10h11----|
G|----------------8-8-7-7-3-3-2------------7h8h10-7h8h10-------------------|
D|------------------------------5h7h8-5h7h8--------------------------------|
A|-------------------------------------------------------------------------|
E|-------------------------------------------------------------------------|
  (..............fast picking...............)
e|-------------------------------------------------------------------------|
B|-8h10h11-8h10h11-8h10h11-8h10h11-----------------------------------------|
G|--------------------------------5h7h8-5h7h8-^7-8-8-7-7-5-5-3-3-2-2-00-2--|
D|-------------------------------------------------------------------------|
A|-------------------------------------------------------------------------|
E|-------------------------------------------------------------------------|

e|-------------------------------------------------------------------------|
B|-8h10h11-8h10h11-6h8h10-6h8h10-4h6h8-4h6h8-------------------------------|
G|------------------------------------------8h7h5--------------------------|
D|-----------------------------------------------8h7h5-8h7h5---------------|
A|----------------------------------------------------------10h8h6-10------|
E|-------------------------------------------------------------------------|

                   (........Extremly fast Picking........)
e|-------------------------------------------------------------------------|
B|-----------------------------8h10h11-8h10h11-----------------------------|
G|-7-8-7-5-7-3-2-7--5h7h8-5h7h8---------------8h7h5------------------------|
D|-------------------------------------------------8h7h5-------------------|
A|------------------------------------------------------10-----------------|
E|-------------------------------------------------------------------------|
Riff1:x2
Riff2:x1
Riff3:x1

End Fill:
-------------------|
-------------------|
-------------------|
-------------------|
-555-333-5---------|
-555-333-5---------|
END!

5.Jihad

Tuning:EADGbe

Riff1:x3
e|-----------------------------------------------------------------|
B|-----------------------------------------------------------------|
G|-----------------------------------------------------------------|
D|-----------------------------------------------------------------|
A|-7777-8-5-8-5555-8-10-8-----10101010-11-8-11-10101010-11-13-11---|
E|-5555-6-3-6-7777-6-8--6-x2--8-8-8-8--9--6-9--8-8-8-8--9--11-9----|

Riff2:x2
e|------------------------------------------------------------------------|
B|------------------------------------------------------------------------|
G|------------------------------------------------------------------------|
D|------------------------------------------------------------------------|
A|-5-8-4-8-9-5-4-44-------------------------------------------------------|
E|-3-6-2-6-7-3-2-22-------------------------------------------------------|

Riff1:x3

Riff3:x16
e|-----------------------------------------------------------------------|
B|-----------------------------------------------------------------------|
G|-----------------------------------------------------------------------|
D|-----------------------------------------------------------------------|
A|-77xx---77xx---77xx555-------------------------------------------------|
E|-55xx---55xx---55xx333-------------------------------------------------|

Riff4:x4 (Jihad-in the name of Hate, Jihad- The twisted hands of faith)

e|---------------------------------------------------------------------|
B|---------------------------------------------------------------------|
G|---------------------------------------------------------------------|
D|---------------------------------------------------------------------|
A|-77-8-7-5--10-8------------------------------------------------------|
E|-55-6-5-3--8--6x2----------------------------------------------------|

Rhytm for solo 1 is Riff4


Solo 1


2:22
                                  (..........Fast Picking........)
|---------------------------------------------------------------------|
|-9-10-12-10-12-10-12-10-12-10-12-9h10h12-9h10h12-9h10h12-9h10h12-----|
|-----------------------------------------------------------------10-9|
|---------------------------------------------------------------------|
|---------------------------------------------------------------------|
|---------------------------------------------------------------------|

  (............Fast Picking......)
|---------------------------------------------------------------------|
|-9h12h10-9h12h10-9h12h10-9h12h10-12-12-12-10-10-10/9-----------------|
|----------------------------------------------------21-19-17-16-15/14|
|---------------------------------------------------------------------|
|---------------------------------------------------------------------|
|---------------------------------------------------------------------|


Riff5:x1

e|-----------------------------------------------------------------------|
B|-----------------------------------------------------------------------|
G|-----------------------------------------------------------------------|
D|-----------------------------------------------------------------------|
A|--77778888777555----77778888777-10-8-----777777888888-10-10-88---------|
E|--55556666555333----55556666555-8--6~-x4-555555666666-8--8--66-x4------|

Bridge:x6 (Solo 2 Rhytm)

e|---------------------------------------------------------------------|
B|---------------------------------------------------------------------|
G|---------------------------------------------------------------------|
D|---------------------------------------------------------------------|
A|-7810-6-6-6-6----7810-874--------------------------------------------|
E|-568--4-4-4-4----568--652--------------------------------------------|

Solo 2: i am not sure if it´s right.
                 (..................Picking Fucking Fast.............)
e|----------------9h10h12-------------------------------------9h10h12-----|
B|--5-6-7-888888----------9h10h12----------------------9h10h12------------|
G|--------------------------------9h10h12-------9h10h12-------------------|
D|---------------------------------------9h10h12--------------------------|
A|------------------------------------------------------------------------|
E|------------------------------------------------------------------------|
                                    ( .........Fast Picking........)
e|-5-6-9-10-12-13-15-13-12-10-9\10--9h10h12-9h10h12-9h10h12-9h10h12-12-109~|
B|-------------------------------------------------------------------------|
G|-------------------------------------------------------------------------|
D|-------------------------------------------------------------------------|
A|-------------------------------------------------------------------------|
E|-------------------------------------------------------------------------|

Riff1:x3
Riff2:x2
Riff3:x16

END


6.The Human Abstract

Standard tuning

Git1-Riff1:x3
E|-----------------------------------------------------------------|
B|-----------------------------------------------------------------|
G|-----------------------------------------------------------------|
D|-4--2--4--4-4--2--4--2----------------------------5--------------|
A|-2--0--2--2-2--0--2--0-00-000-00000-5-------------3-333333333333-|
E|------------------------------------3-333333333333---------------|

Git2-Riff1:x3
E|-----------------------------------------------------------------|
B|-----------------------------------------------------------------|
G|-----------------------------------------------------------------|
D|-4--2--4--4-4--2--4--2----------------------------------2--------|
A|-2--0--2--2-2--0--2--0-00-000-00000-5----------------3-0---------|
E|------------------------------------3-333333333333--0------------|

  Riff2:x2
E||----------------------------------------------------------------------|
B||----------------------------------------------------------------------|
G||----------------------------------------------------------------------|
D||--9--9--10----9---------9--7----10--9---------9----10----9---12-10-9--|
A||--7--7--8-----7---------7--5----8---7---------7----8-----7---10-8--7--|
E||----------------------------------------------------------------------|

                                                                     Pm......

 Riff3:x1      very fast...

E|---------------------------------------------3^------------------|
B|-----------------------------------------------------------------|
G|-----------------------------------------------------------------|
D|-----------------------------------------------------------------|
A|--------5h7-----5h7-----5h7---5h7-----5h7------------------------|
E|---000-----000-----000-----000-----000---x3----------------------|

Third time you bend !

Chorus:x4
e|-----------------------------------------------------------------------------|
B|-----------------------------------------------------------------------------|
G|-----------------------------------------------------------------------------|
D|-99/7-99-9999-1212-1212------------------------------------------------------|
A|-77/5-77-7777-1010-1010-12---------------------------------------------------|
E|------------------------10-----------------------------------------------|---|


Bridge:x5

E||-----------------------------------------------------------------------||
B||-----------------------------------------------------------------------||
G||-----------------------------------------------------------------------||
D||-9-----8-----8---9-----8-----8----9-----8-----8---9-9---8-8------------||
A||-7-----6-----6---7-----6-----6----7-----6-----6---7-7---6-6------------||
E||-----------------------------------------------------------------------||


Riff4:x8
E||----------------------------------------------------------------------||
B||----------------------------------------------------------------------||
G||----------------------------------------------------------------------||
D||-99-1111/12-----------------------------------------------------------||
A||-77-9-9-/10x3-77-999/10-----------------------------------------------||
E||----------------------------------------------------------------------||

              Solo Rhythm:

E||--------------------------------------------------------------------||
B||--------------------------------------------------------------------||
G||--------------------------------------------------------------------||
D||---------------------5-----5-----5---2-----2---2---4-----4-----4----||
A||--2-2-2-2-2-2-2-2----3-3-3-3-3-3-3-3-0-0-0-0-0-0-0-2-2-2-2-2-2-2-2--||
E||--0-0-0-0-0-0-0-0---------------------------------------------------||


Solo:

                    (........fast picking.......)      (..Fast picking..)
e|------------------8h7h5-8h7h5-8h7h5--------------------------------------|
B|-12-11-12--------------------------8h7h5-8h7h5--5-7-8-8h7h5-8h7h5-8h7h5--|
G|---------12-11-12--------------------------------------------------------|
D|-------------------------------------------------------------------------|
A|-------------------------------------------------------------------------|
E|-------------------------------------------------------------------------|
 (..Fast picking..)                               (...Fast picking.......)
e|8h7h5-8h7h5-8h7h5--------------------------------------------------------|
B|-----------------5-5-7-8-10-8-7-5-4-5-7-8-----5-7-8-8h7h5-8h7h58h7h58h7h5|
G|-----------------------------------------5-7-9---------------------------|
D|-------------------------------------------------------------------------|
A|-------------------------------------------------------------------------|
E|-------------------------------------------------------------------------|
  (.....extremly fast picking......)
e|-------------------------------------------------------------------------|
B|-10h8h7-10h8h7-10h8---------------5-7-8-10-12^-12^-----------------------|
G|-------------------8h7h5-8h7h5-8h7---------------------------------------|
D|-------------------------------------------------------------------------|
A|-------------------------------------------------------------------------|
E|-------------------------------------------------------------------------|

Riff3:x1
Chorus:x4
Riff2:x1

End!


7.Prophecies of Fire

Tuning:Standard

Riff1:x4
e|-------------------------------------------------------------------------|
B|-------------------------------------------------------------------------|
G|-------------------------------------2^----------------------------------|
D|-------------------------------7-6-5-------------------------------------|
A|-2-2222-22222-2-2-2-2222-22222-5-4-3-------------------------------------|
E|-0-0000-00000-0-0-0-0000-00000-5-4-3-------------------------------------|
Riff1:x4

Solo rhytm:
e|-------------------------------------------------------------------------|
B|-------------------------------------------------------------------------|
G|-------------------------------------------------------------------------|
D|-------------------------------------------------------------------------|
A|-2-2222-2222-2222-22-3-3333-3333-3333------------------------------------|
E|-0-0000-0000-0000-00-1-1111-1111-1111------------------------------------|

Solo1:
e|------------------------13-----------------------------------------------|
B|---12-12h13-12h13h15-11--12-15-14-12-15-14-12-15-14-12-12-12-13-15-151513|
G|-------------------------------------------------------------------------|
D|-------------------------------------------------------------------------|
A|-------------------------------------------------------------------------|
E|000----------------------------------------------------------------------|

e|-------------------------------------------------------------------------|
B|-12-10-13-12-10-13-12-10-12-14-16-17-14-16-17-14-16-17-18/19-18/19-------|
G|-------------------------------------------------------------------------|
D|-------------------------------------------------------------------------|
A|-------------------------------------------------------------------------|
E|-------------------------------------------------------------------------|

e|-------------------------------------------------------------------------|
B|-17-19-20-17-19-20-17-19-20-21/22-21/22-10-12-13-13-12-10-15-13-12-------|
G|-------------------------------------------------------------------------|
D|-------------------------------------------------------------------------|
A|-------------------------------------------------------------------------|
E|-------------------------------------------------------------------------|

e|-------------------------------------------------------------------------|
B|-17-15-13-10-13-12-15-13-12-17-15-13-19-17-15----------------------------|
G|-------------------------------------------------------------------------|
D|-------------------------------------------------------------------------|
A|-------------------------------------------------------------------------|
E|-------------------------------------------------------------------------|

Riff2:x4
Do this just
at the begining!
      v
e|-----------|-------------------------------------------------------------|
B|-----------|-------------------------------------------------------------|
G|-----------|-------------------------------------------------------------|
D|-9---------|--9-8-9----9-8-----------------------------------------------|
A|-7-9---9---|--7-6-7-12-7-6-x2-9---9--------------------------------------|
E|---7xxx7-x1|------------------7xxx7-x1-----------------------------------|

Solo rhytm2:x2
e|-------------------------------------------------------------------------|
B|-------------------------------------------------------------------------|
G|-------------------------------------------------------------------------|
D|-9---9-------9---9-------9---9--7-5-555-4-2-222-444-444------------------|
A|-7xxx7-9---9-7xxx7-9---9-7xxx7--5-3-333-2-0-000-222-222------------------|
E|-------7xxx7-------7xxx7-------------------------------------------------|

Solo:this is 80% correct

e|--------7-----------------------------------7----------------------------|
B|-5-5-7-8--8-7-5-5-5-7-8-5-7-8-5-7-8-7-7-8-10--7-8-10-7-8-10-7-8-10-------|
G|-------------------------------------------------------------------------|
D|-------------------------------------------------------------------------|
A|-------------------------------------------------------------------------|
E|-------------------------------------------------------------------------|

e|-------------------------------------------------------------------------|
B|-5h7p8-5h7p8-7h8p10-7h8p10-8h10p12-10h12h13-10h12h13-13p12p10-12p10p8----|
G|-------------------------------------------------------------------------|
D|-------------------------------------------------------------------------|
A|-------------------------------------------------------------------------|
E|-------------------------------------------------------------------------|

e|-------------------------------------------------------------------------|
B|-10p8p7-8p7p5------------------------------------------------------------|
G|-------------------------------------------------------------------------|
D|-------------------------------------------------------------------------|
A|-------------------------------------------------------------------------|
E|-------------------------------------------------------------------------|

Riff1:Till the end of the song!

End

8.In The Name Of The Future

Tuning:Standard

Riff1:x2
e|-------------------------------------------------------------------------|
B|-------------------------------------------------------------------------|
G|-------------------------------------------------------------------------|
D|-9999-88-1010----9--88-10------------------------------------------------|
A|-7777-66-8-8-x8--7--66-8---x2--------------------------------------------|
E|-------------------------------------------------------------------------|

Riff2:x2
e|-------------------------------------------------------------------------|
B|-------------------------------------------------------------------------|
G|-------------------------------------------------------------------------|
D|---------55-88-----------------------------------------------------------|
A|-22-2222-33-66-x3-2222-2222-2222-----------------------------------------|
E|-00-0000----------0000-0000-0000-x1--------------------------------------|

Riff3:x12
e|-------------------------------------------------------------------------|
B|-------------------------------------------------------------------------|
G|-------------------------------------------------------------------------|
D|---2---2---2-------------------------------------------------------------|
A|-22--22--22--2222222-----------------------------------------------------|
E|-00--00--00--0000000-----------------------------------------------------|

Solo:Later
Riff3:x12
Riff1:x2
Riff2:x2

End Riff:play till the end!
e|-------------------------------------------------------------------------|
B|-------------------------------------------------------------------------|
G|-------------------------------------------------------------------------|
D|-------555---------------------------------------------------------------|
A|-2222--333---------------------------------------------------------------|
E|-0000--------------------------------------------------------------------|

End fill
e|------------|
B|------------|
G|------------|
D|-5-5--------|
A|-3-3--------|
E|------------|

END!!!!!!!


9. Spaceman

Tuning:EADGBe

Riff1:x4
e|-------------------------------------------------------------------------|
B|-------------------------------------------------------------------------|
G|-------------------------------------------------------------------------|
D|-------------------------------------------------------------------------|
A|-8-8-8-8-6-6-6-6---------------------------------------------------------|
E|-6-6-6-6-4-4-4-4---------------------------------------------------------|

Riff2:x4
e|-------------------------------------------------------------------------|
B|-------------------------------------------------------------------------|
G|-------------------------------------------------------------------------|
D|-------------8^----------------------------------------------------------|
A|-44-44-44-44-------------------------------------------------------------|
E|-22-22-22-22-------------------------------------------------------------|
Riff1:x4
Riff2:x4

Riff3:x3
e|------------------------------------------------------------------------|
B|------------------------------------------------------------------------|
G|------------------------------------------------------------------------|
D|------------------------------------------------------------------------|
A|-8-8-8--12-12-12-10-10-8-8----------------------------------------------|
E|-6-6-6------------------------------------------------------------------|

Riff4:x4
e|-------------------------------------------------------------------------|
B|-------------------------------------------------------------------------|
G|-------------------------------------------------------------------------|
D|-------------------------------------------------------------------------|
A|-8-88-108-10-7-8-7-------------------------------------------------------|
E|-6-66-8-6-8--5-6-5-------------------------------------------------------|
Pm.............

Riff5:x1This is wrong sorry!
e|-------------------------------------------------------------------------|
B|-------------------------------------------------------------------------|
G|-------------------------------------------------------------------------|
D|-------------------------------------------------------------------------|
A|-121212121212-10101010-8888-10101010-121212121212-10101010-8-------------|
E|-101010101010-8-8-8-8--6666-8-8-8-8--101010101010-8-8-8-8--6-------------|

Chorus:x2
e|------------------------------------------------------------------------|
B|------------------------------------------------------------------------|
G|------------------------------------------------------------------------|
D|---------------------------11-11-11-11-1111111--------------------------|
A|-5-5-5-5-5555-8-8-8-8-8888-11-11-11-11-1111111-13-13-13-13-13131313-----|
E|-3-3-3-3-3333-6-6-6-6-6666---------------------11-11-11-11-11111111-----|

last riff:x8
e|------------------------------------------------------------------------|
B|------------------------------------------------------------------------|
G|------------------------------------------------------------------------|
D|------------------------------------------------------------------------|
A|-10101010---------------------------------------------------------------|
E|-8-8-8-8----------------------------------------------------------------|

Riff3:x4
Riff3:x4
Riff4:x4
Riff5:x1
Chorus:x2
last riff:x8

End!

10. The Birth of Tragedy

Tuning:Standard

Riff1:x2
e|-------------------------------------------------------------------------|
B|-------------------------------------------------------------------------|
G|-------------------------------------------------------------------------|
D|--------------888888--------------777777---------------------------------|
A|-22222222xxxx-666666-22222222xxxx-555555---------------------------------|
E|-00000000xxxx--------00000000xxxx----------------------------------------|
Pm................................

Riff2:x8
e|-------------------------------------------------------------------------|
B|-------------------------------------------------------------------------|
G|-------------------------------------------------------------------------|
D|-7-5-7-8-5-5-7777-8-7777-8-5---------------------------------------------|
A|-5-3-5-6-3-3-5555-6-5555-6-3---------------------------------------------|
E|-------------------------------------------------------------------------|
Riff1:x1
Riff2:x8

Riff3:x4
e|-------------------------------------------------------------------------|
B|-------------------------------------------------------------------------|
G|-------------------------------------------------------------------------|
D|-77-77-------------------------------------------------------------------|
A|-55-55-44-44-66-66-66-66-7-----------------------------------------------|
E|-55-55-22-22-44-44-44-44-5-----------------------------------------------|
Pm..........................

Riff5:x2 you have to listen when he plays it!
e|-------------------------------------------------------------------------|
B|-2^----------------------------------------------------------------------|
G|-------------------------------------------------------------------------|
D|-------------------------------------------------------------------------|
A|-------------------------------------------------------------------------|
E|-------------------------------------------------------------------------|

Riff6:you have to figure out!
e|-----------------------------------------------------------------------|
B|-----------------------------------------------------------------------|
G|-------------------------1^--------------------------------------------|
D|-----------------------------------------------------------------------|
A|-xxxx7777-8-7777-8-7777-8-7--------------------------------------------|
E|-xxxx5555-6-5555-6-5555-6-5--------------------------------------------|

Riff7:
e|-------------------------------------------------------------------------|
B|-33433434-x9-3~----------------------------------------------------------|
G|-------------------------------------------------------------------------|
D|-------------------------------------------------------------------------|
A|-------------------------------------------------------------------------|
E|-------------------------------------------------------------------------|
Second guitar for riff7 is riff2!

End!


| /  slide up
| \  slide down
| h  hammer-on
| p  pull-off
| ~  vibrato
| +  harmonic
| x  Mute note
=============================================================================
Suggest correction
Creating personal tab
Creating personal tab
You can edit any tab online and save it as your Personal.

You can edit, replace or remove any tab part or add personal notes – all changes will be seen only by you.

Personal tabs can be accessed anytime from any device, even offline.
Learn more »
Give kudos to tab author, rate the tab!
1 2 3 4 5
comments
print report bad tab
2 comments total.
-1 reply
Spiritus 10 Oct 30, 2007 04:02 AM

Hey there !
don´t rate this tab now cause we had to correct it!
i will say when you can rate !
i think tomorrow!

0 reply
Derz 629 Oct 30, 2007 04:12 AM

hey rate this tab if you want that was only a ´joke of this badass!

guest
You may want to rate the tab now too:
select rating
Wanna post a correction for this tab? Suggest correction