Oops, an error
Loading. Please wait.

Fenster tab

version 2
version 2

Whole song

  • More complete, better fit for the song.

Interactive

217 views 27 this week
2 commentsread comments
1 2 3 4 5
x 3
add to favorites
×
Save as Personal and add changes to this tab that will be seen only by you. Learn more ›
×
You can save this tab as Personal to edit and correct it or add notes. All changes will be seen only by you. Learn more »
launch autoscroll
font size
0
reset
how to read this tab
guitar tuner
edit
Autoscroll
slow
fast
+/-
esc
set tempo
stop
About this tab version
More complete, better fit for the song. Was this info helpful? Yes No
KraftKlub -- Fenster (Keine Nacht für Niemand)

Ich hoffe, diese Version ist größtenteils richtig -- ich
freue mich aber über Anmerkungen und Verbesserungsvorschläge :-)

Kleine Erläuterung:
 immer [b]esser auf der Welt         --- "[b]esser" ist auf der 1.
     |  : . . . : . . . : . . .      --- Takt (:) und Schläge (.)

Time stamps: Spotify Version



[Intro] -- 0:00
     |  : . . . : . . . : . . . : . . . :  |     |  :   .   .   .   :   .   .   .   :  |
    e|-------------------------------------|     |-------------------------------------|
    B|--10--12------10--12-----------------|     |--15----------12----------8----------|
    G|----------9-----------9--------------| x3  |--------14----------11--------7------|
    D|-------------------------------------|     |-------------------------------------|
    A|-------------------------------------|     |-------------------------------------|
    E|-------------------------------------|     |-------------------------------------|

     |  : . . . : . . . : . . . : . . . : . . . : . . . : . . . : . . . :  |
    e|---------------------------------------------------------------------|
    B|---------------------------------------------------------------------|
    G|--9---------------7-------------------------------12-(x8)------------|
    D|--9-(x16)---------7-(x16)---------7---------------12------9----------|
    A|--7---------------5---------------7-(x16)---------10------9-(x8)-----|
    E|----------------------------------5-----------------------7----------|


[Verse 1] -- 0:29
 immer [b]esser auf der Welt
     |  : . . . : . . . : . . . : . . . : . . . : . . . : . . . : . . . :  |
    e|-----7---------------7---------------8---------------8---------------|
    B|----8---------------7---------------8---------------10---------------|
    G|---9---------------7---------------9---------------9-----------------| x2
    D|---------------------------------------------------------------------|
    A|---------------------------------------------------------------------|
    E|---------------------------------------------------------------------|

   ist [k]lar, so kann das
     |  : . . . : . . . : . . . : . . . : . . . : . . . : . . . : . . . :  |
    e|-----12--------------14--------------17--------------15--------------|
    B|----12--------------15--------------17--------------13---------------|
    G|---12--------------16--------------17--------------14----------------|
    D|---------------------------------------------------------------------|
    A|---------------------------------------------------------------------|
    E|---------------------------------------------------------------------|

Es ist [ ] nichts zu spät
     |  :   .   .   .   :   .   .   .   :   .   .   .   :   .   .   .   :  |
    e|------8---8---8-------7---7---7-------5---5---5-------3---4---4------|
    B|----8---8---8---8---8---8---8---8---5---5---5---5---5---5---5---5----|
    G|--9---------------7---------------5---------------4------------------|
    D|---------------------------------------------------------------------|
    A|---------------------------------------------------------------------|
    E|---------------------------------------------------------------------|

       [G]eh deinen Weg
     |  :   .   .   .   :   .   .   .   :   .   .   .   :   .   .   .   :  |
    e|------8---8---8-------7---7---7-------5---5---5---7------------------|
    B|----8---8---8---8---8---8---8---8---5---5---5---5-7------------------|
    G|--9---------------7---------------5---------------8------------------|
    D|---------------------------------------------------------------------|
    A|---------------------------------------------------------------------|
    E|---------------------------------------------------------------------|


[Chorus 1] -- 1:21
   dem [F]enster für mich
     |  : . . . : . . . : . . . : . . . : . . . : . . . : . . . : . . . :  |
    e|---------------------------------------------------------------------|
    B|---------------------------------------------------------------------|
    G|--9---------------7-------------------------------12-(x8)------------| x2
    D|--9-(x16)---------7-(x16)---------7---------------12------9----------|
    A|--7---------------5---------------7-(x16)---------10------9-(x8)-----|
    E|----------------------------------5-----------------------7----------|


[Verse 2] -- 1:47
Ob nun [B]omben fallen
     |  : . . . : . . . : . . . : . . . : . . . : . . . : . . . : . . . :  |
    e|-----7---------------7---------------8---------------8---------------|
    B|----8---------------7---------------8---------------10---------------|
    G|---9---------------7---------------9---------------9-----------------|
    D|---------------------------------------------------------------------|
    A|---------------------------------------------------------------------|
    E|---------------------------------------------------------------------|

       [D]u bist der Normale
     |  : . . . : . . . : . . . : . . . : . . . : . . . : . . . : . . . :  |
    e|-----12--------------14--------------17--------------15--------------|
    B|----12--------------15--------------17--------------13---------------|
    G|---12--------------16--------------17--------------14----------------|
    D|---------------------------------------------------------------------|
    A|---------------------------------------------------------------------|
    E|---------------------------------------------------------------------|

                       [G]eh deinen Weg
     |  :   .   .   .   :   .   .   .   :   .   .   .   :   .   .   .   :  |
    e|------8---8---8-------7---7---7-------5---5---5-------3---4---4------|
    B|----8---8---8---8---8---8---8---8---5---5---5---5---5---5---5---5----|
    G|--9---------------7---------------5---------------4------------------|
    D|---------------------------------------------------------------------|
    A|---------------------------------------------------------------------|
    E|---------------------------------------------------------------------|

       Es ist nicht zu [s]pät
     |  :   .   .   .   :   .   .   .   :   .   .   .   :   .   .   .   :  |
    e|------8---8---8-------7---7---7-------5---5---5---7------------------|
    B|----8---8---8---8---8---8---8---8---5---5---5---5-7------------------|
    G|--9---------------7---------------5---------------8------------------|
    D|---------------------------------------------------------------------|
    A|---------------------------------------------------------------------|
    E|---------------------------------------------------------------------|


[Chorus 2] -- 2:27
   dem [F]enster für mich
     |  : . . . : . . . : . . . : . . . : . . . : . . . : . . . : . . . :  |
    e|---------------------------------------------------------------------|
    B|---------------------------------------------------------------------|
    G|--9---------------7-------------------------------12-(x8)------------| x2
    D|--9-(x16)---------7-(x16)---------7---------------12------9----------|
    A|--7---------------5---------------7-(x16)---------10------9-(x8)-----|
    E|----------------------------------5-----------------------7----------|


[Bridge] -- 2:53
                                    [S]pring!      [S]pring! ...
     |  : . . . : . . . : . . . : . . . :  |     |  : . . . : . . . : . . . : . . . :  |
    e|-------------------------------------|     |-------------------------------------|
    B|-------------------------------------|     |-------------------------------------|
    G|-------------------------------------| x2  |-------------------------------------| x6
    D|-------------------------------------|     |--2-------2-------2-------2----------|
    A|-------------------------------------|     |--2-(x8)--2-(x8)--2-(x8)--2-(x8)-----|
    E|--0-------2b-0----3b-0----2b-0-------|     |--0-------2-------3-------2----------|


[Chorus 3] -- 3:45
   dem [F]enster für mich
     |  : . . . : . . . : . . . : . . . : . . . : . . . : . . . : . . . :  |
    e|---------------------------------------------------------------------|
    B|---------------------------------------------------------------------|
    G|--9---------------7-------------------------------12-(x8)------------| x2
    D|--9-(x16)---------7-(x16)---------7---------------12------9----------|
    A|--7---------------5---------------7-(x16)---------10------9-(x8)-----|
    E|----------------------------------5-----------------------7----------|


[Outro] -- 4:11
     |  :  .  .  .  :  .  .  .  :  .  .  .  :  .  .  .  :  |
        Em                      D             Dsus4 D

  Auch [d]u kannst    ...    leiste deinen [T]eil
     |  :  .  .  .  :  .  .  .  :  .  .  .  :  .  .  .  :  .  .  .  :  |
        Am                Am/B  G5          B           Em





***********************************

| b   Bend
Suggest correction
Creating personal tab
Creating personal tab
You can edit any tab online and save it as your Personal.

You can edit, replace or remove any tab part or add personal notes – all changes will be seen only by you.

Personal tabs can be accessed anytime from any device, even offline.
Learn more »
Give kudos to tab author, rate the tab!
1 2 3 4 5
comments
print report bad tab
2 comments total.
0 reply
kastyc3999 10 Jun 29, 2017 01:18 PM

The only thing, that i would tell that's wrong is the last "chord" the verses: 12/13/15 should be 14/13/15 (im using my mobile).
The other 99% seems pretty correct in this well done tab :)

guest
You may want to rate the tab now too:
select rating
Wanna post a correction for this tab? Suggest correction