Oops, an error
Loading. Please wait.

Ich Will Nicht Nach Berlin Tab

version 1
version 1

Whole song

Interactive

26,486 views 6 this week
2 commentsread comments
1 2 3 4 5
accurate
x 7
add to favorites
launch autoscroll
font size
0
reset
how to read this tab
guitar tuner
Autoscroll
slow
fast
+/-
esc
set tempo
stop
Help us to improve Ultimate-Guitar.com Take our survey!
×
Intro:

Guitar 1:
E|-------12------12---12-|-----12----12--12-|
B|-10-10---10-10---10----|-9-9---9-9---9----|
G|-----------------------|------------------|
D|-----------------------|------------------|
A|-----------------------|------------------|
E|-----------------------|------------------|

E|------------------|---------12--11--10-|
B|------------------|--------------------|
G|-----10----10--10-|-----10-------------|
D|-9-9---9-9---9----|-9-9---9------------|
A|------------------|--------------------|
E|------------------|--------------------|

Guitar 2:

            F#m                            E  
E|--9--9--9--9--9--9--9--9--|--7--7--7--7--7--7--7--7--|
B|--10-10-10-10-10-10-10-10-|--9--9--9--9--9--9--9--9--|
G|--11-11-11-11-11-11-11-11-|--9--9--9--9--9--9--9--9--|
D|--11-11-11-11-11-11-11-11-|--9--9--9--9--9--9--9--9--|
A|--9--9--9--9--9--9--9--9--|--7--7--7--7--7--7--7--7--|
E|--------------------------|--------------------------|
                         
                          Bm
E|--7--7--7--7--7--7--7--7--|--7--7--7--7--7--7--7--7--|
B|--7--7--7--7--7--7--7--7--|--7--7--7--7--7--7--7--7--|
G|--7--7--7--7--7--7--7--7--|--7--7--7--7--7--7--7--7--|
D|--9--9--9--9--9--9--9--9--|--9--9--9--9--9--9--9--9--|
A|--9--9--9--9--9--9--9--9--|--9--9--9--9--9--9--9--9--|
E|--7--7--7--7--7--7--7--7--|--7--7--7--7--7--7--7--7--|

Refrain:

     B5       D5      E5
E|-----------------|--------------------|
B|-----------------|--------------------|
G|---------7--7--7-|-9--9--9/10--9-7--9-|
D|-9--9--9-7--7--7-|-9--9---------------|
A|-9--9--9-5--5--5-|-7--7---------------|
E|-7--7--7---------|--------------------|
     B5       D5      E5
E|-----------------|--------------------|
B|-----------------|--------------------|
G|---------7--7--7-|-9--9/10--9--7------|
D|-9--9--9-7--7--7-|-9-------------9--7-|
A|-9--9--9-5--5--5-|-7------------------|
E|-7--7--7---------|--------------------|

Verse:

            Bm
E|-----7-------7------7------------|
B|-----7-------7------7------------|
G|-----7-------7------7------------|
D|---------------------------------|
A|------------------------5--------|
E|-7------7------7------7----7---5-|
Suggest correction
What's this?
You can suggest a correction to this tab. Community and Mods will review your correction and vote to approve or reject it.
comments
print report bad tab
2 comments total.
0 reply
JKlinghoffer 93 wrote on November 24 2014, 05:25 pm

Lack of accuracy. Tab incomplete. Clearly wrong. Wow you made some big mistakes, please look at my correction, you will see how it should sound :)
But everything else is correct, keep up the good work man!

0 reply
JKlinghoffer 93 wrote on November 24 2014, 05:25 pm

I think the Intro rather goes like this:

One guitar starts playing this riff and continues it throughout the Intro:

E|-------------------------|-----------------|-----------------|-----------------|
B|-------------------------|-----------------|-----------------|-----------------|
G|-11-11-11-11-11-11-11-11-|-9-9-9-9-9-9-9-9-|-4-4-4-4-4-4-4-4-|-4-4-4-4-4-4-4-4-|
D|-11-11-11-11-11-11-11-11-|-9-9-9-9-9-9-9-9-|-4-4-4-4-4-4-4-4-|-4-4-4-4-4-4-4-4-|
A|-9--9--9--9--9--9--9--9--|-7-7-7-7-7-7-7-7-|-2-2-2-2-2-2-2-2-|-2-2-2-2-2-2-2-2-|
E|-------------------------|-----------------|-----------------|-----------------|

The 2. guitar starts at the second time the Riff is played, with the slide from 4/7.

E|---------------|-----------------|-----------------|-----------------|---------------|
B|---------------|-----------------|-----------------|-----------------|---------7-5---|
G|---------------|-----9-----9-----|-----9-----9-----|-----6-----6-----|-6---6-------6-|
D|------------4/-|-7-7---7-7---7-7-|-9-9---9-9---9-9-|-4-4---4-4---4-4-|---4---4-------|
A|---------------|-----------------|-----------------|-----------------|---------------|
E|---------------|-----------------|-----------------|-----------------|---------------|

E|---------------|-----------------|-----------------|-----------------|---------------|
B|---------------|-----------------|-----------------|-----------------|---------7-5---|
G|---------------|-----9-----9-----|-----9-----9-----|-----6-----6-----|-6---6-------6-|
D|---------------|-7-7---7-7---7-7-|-6-6---6-6---6-6-|-4-4---4-4---4-4-|---4---4-------|
A|---------------|-----------------|-----------------|-----------------|---------------|
E|---------------|-----------------|-----------------|-----------------|---------------|

E|---------------|-----------------|-----------------|-----------------|---------------|
B|---------------|-----------------|-----------------|-----------------|---------------|
G|---------------|-----9-----9-----|-----9-----9-----|-----6-----6-----|-6---6---6\----|
D|---------------|-7-7---7-7---7-7-|-9-9---9-9---9-9-|-4-4---4-4---4-4-|---4---4-------|
A|---------------|-----------------|-----------------|-----------------|---------------|
E|---------------|-----------------|-----------------|-----------------|---------------|

Notice the small changes over the E Power-Chord, and the Ending being a slide down from 6\

guest
You may want to rate the tab now too:
select rating
Please do not post tabs as comments. Select "correction" instead!