Oops, an error
Loading. Please wait.

Kein Liebeslied Tab

version 1
version 1

Whole song

Interactive

21,502 views 21 this week
2 commentsread comments
1 2 3 4 5
accurate
x 5
add to favorites
launch autoscroll
font size
0
reset
how to read this tab
guitar tuner
Autoscroll
slow
fast
+/-
esc
set tempo
stop
Help us to improve Ultimate-Guitar.com Take our survey!
×
Difficulty
intermediate
It's my first tab so please be gracious (:
The song is very straight, it's just difficult to change the chords.
Hope you'll enjoy it! (:

-----------------------------------------
-----------------------------------------


The chords you use:

F#5     x646xxx
C#??    x436xxx
D#5/Bb  x113xxx
C#      x433xxx





All in all there are 3 pickings, the first one is played through the most time of the Song.
It should look like this:


   F#5/D#  
E|----------------|----------------|
B|----------------|----------------|
G|-----6-------6--|-----6-------6--|
D|---4---4---4---4|---4---4---4---4|
A|-6-------6------|-6-------6------|
E|----------------|----------------|





From 0:00 - 1:20 and 2:35 till the end it's played like this:


   F#5/D#           C#??
E|----------------|----------------|
B|----------------|----------------|
G|-----6-------6--|-----6-------6--|
D|---4---4---4---4|---3---3---3---3|
A|-6-------6------|-4-------4------|
E|----------------|----------------|


   D#5/Bb           C#
E|----------------|----------------|
B|----------------|----------------|
G|-----3-------3--|-----3-------3--|
D|---1---1---1---1|---3---3---3---3|
A|-1-------1------|-4-------4------|
E|----------------|----------------|






From 1:20 - 2:35 it's a little bit different:


   D#m              C#
E|----------------|----------------|
B|----------------|----------------|
G|-----3-------3--|-----3-------3--|
D|---4---4---4---4|---3---3---3---3|
A|-6-------6------|-4-------4------|
E|----------------|----------------|


   D#5/Bb           C#
E|----------------|----------------|
B|----------------|----------------|
G|-----3-------3--|-----3-------3--|
D|---1---1---1---1|---3---3---3---3|
A|-1-------1------|-4-------4------|
E|----------------|----------------|



Last Chord should be this one:


   D#5/Bb      
E|----------------|
B|----------------|
G|-3~~~~~---------|
D|-1~~~~~---------|
A|-1~~~~~---------|
E|----------------|





Suggest correction
comments
print report bad tab
2 comments total.
+3 reply
JH. 10 wrote on March 24 2012, 04:27 pm

so ist es besser:

E|----------------|----------------|
B|----------------|-----4-------4--|
G|-----6-------6--|----------------|
D|---4---4---4---4|---3---3---3---3|
A|-6-------6------|-4-------4------|
E|----------------|----------------|

E|----------------|----------------|
B|----------------|----------------|
G|-----3-------3--|-----3-------3--|
D|---1---1---1---1|---3---3---3---3|
A|-2-------2------|-4-------4------|
E|----------------|----------------|

0 reply
maetthi 10 wrote on August 23 2016, 10:17 am

ist noch besser:

E |----------------|----------------|----------------|----------------|
B |----------------|----------------|----------------|----------------|
G |----------------|----------------|----------------|----------------|
D |--------11------|--------11------|--------11------|--------11------|
A |-----9-----9----|-----9-----9----|-----9-----9----|-----9-----9----|
E |--11------------|--11------------|--11------------|--11------------|

----------------|----------------|----------------|----------------|
----------------|----------------|----------------|----------------|
--------6-------|--------6-------|--------6-------|--------6-------|
-----4-----4----|-----4-----4----|-----4-----4----|-----4-----4----|
--6-------------|--6-------------|--6-------------|--6-------------|
----------------|----------------|----------------|----------------|

----------------|----------------|----------------|----------------|
----------------|----------------|----------------|----------------|
--------6-------|--------6-------|--------6-------|--------6-------|
-----4-----4----|-----4-----4----|-----3-----3----|-----3-----3----|
--6-------------|--6-------------|--4-------------|--4-------------|
----------------|----------------|----------------|----------------|

----------------|----------------|----------------|----------------||
----------------|----------------|----------------|----------------||
--------3-------|--------3-------|--------3-------|--------3-------||
-----4-----4----|-----4-----4----|-----3-----3----|-----3-----3----||
--6-------------|--6-------------|--4-------------|--4-------------||
----------------|----------------|----------------|----------------||

guest
You may want to rate the tab now too:
select rating
Please do not post tabs as comments. Select "correction" instead!