Oops, an error
Loading. Please wait.

Kein Liebeslied tab

version 3
version 3

Whole song

Interactive

622 views 12 this week
no commentswrite comment
1 2 3 4 5
3 more votes to show rating
add to favorites
×
Save as Personal and add changes to this tab that will be seen only by you. Learn more ›
×
You can save this tab as Personal to edit and correct it or add notes. All changes will be seen only by you. Learn more »
launch autoscroll
font size
0
reset
how to read this tab
guitar tuner
edit
Autoscroll
slow
fast
+/-
esc
set tempo
stop
Author
Difficulty
-------------------------------------------------------------------------------
                             Kein Liebeslied - Kraftklub
-------------------------------------------------------------------------------
Version: Spotify
Tabbed by: Marsilein
Email: trashmailhochzwei@gmx.de
Tuning: Standard

-------
 Intro  0:00
-------

Git. 2  
E|-----------------|                
B|-----------------|               
G|-----6-------6---| 2x   
D|---4---4---4---4-|                   
A|-6-------6-------|                  
E|-----------------|                  
  P.M.                                    
                          


Git. 1
E|-----------------|-----------------|-----------------|-----------------|
B|-----------------|-----------------|-----------------|-----------------|
G|-----6-------6---|-----8-------8---|-----3-------3---|-----3-------3---| 2x
D|---4---4-------4-|---6---6-------6-|---4---4-------4-|---3---3-------3-|
A|-6---------6-----|-8---------8-----|-2---------2-----|-4---------4-----|
E|-----------------|-----------------|-----------------|-----------------|

Git. 2  
E|-----------------|
B|-----------------|
G|-----6-------6---| 8x    pianissimo
D|---4---4---4---4-|
A|-6-------6-------|
E|-----------------|
  P.M.


---------
 Verse 1 0:27
---------

Git. 1  
E|-----------------|
B|-----------------|
G|-----6-------6---| 4x
D|---4---4---4---4-|
A|-6-------6-------|
E|-----------------|
  P.M.
                                  
Git. 2
E|-----------------|
B|-----------------|
G|-----3-------3---| 4x
D|---4---4---4---4-|
A|-6---------------|
E|-----------------|
  P.M.



Git. 1
E|-----------------|-----------------|-----------------|-----------------|
B|-----------------|-----------------|-----------------|-----------------|
G|-----6-------6---|-----6-------6---|-----6-------6---|-----6-----------|
D|---4---4---4---4-|---4---4---4---4-|---4---4---4---4-|---4---4---4-4-4-|
A|-6-------6-------|-6-------6-------|-6-------6-------|-6-------6-------|
E|-----------------|-----------------|-----------------|-----------------|
  P.M.
                                                                                   
Git. 2  
E|-----------------|-----------------|-----------------|-----------------|
B|-----------------|-----------------|-----------------|-----------------|
G|-----3-------3---|-----3-------3---|-----3-------3---|-----3-----------|         
D|---4---4---4---4-|---4---4---4---4-|---4---4---4---4-|---4---4---4-4-4-|
A|-6-------6-------|-6-------6-------|-6-------6-------|-6-------6-------|
E|-----------------|-----------------|-----------------|-----------------|
  P.M.              


----------
 Chorus 1  0:54
----------
  
E|-----------------|-----------------|-----------------|-----------------|
B|-----------------|-----------------|-----------------|-----------------|
G|-----6-------6---|-----8-------8---|-----3-------3---|-----3-------3---| 2x
D|---4---4-------4-|---6---6-------6-|---4---4-------4-|---3---3-------3-|
A|-6---------6-----|-8---------8-----|-2---------2-----|-4---------4-----|
E|-----------------|-----------------|-----------------|-----------------|



Git. 1
E|-----------------|-----------------|
B|-----------------|-----------------|
G|-----3-------3---|-----3-------3---| 
D|---4---4---4---4-|---4---4---4---4-|
A|-6---------------|-6---------------|
E|-----------------|-----------------|

Git. 2
E|-----------------|-----------------|
B|-----------------|-----------------|
G|-----6-------6---|-----6-----------|     piano
D|---4---4---4---4-|---4---4---4-4-4-|
A|-6-------6-------|-6-------6-------|
E|-----------------|-----------------|
  P.M.


---------
 Verse 2  1:23
---------
  
Git. 1  
E|-----------------|-----------------|-----------------|-----------------|
B|-----------------|-----------------|-----------------|-----------------|
G|-----3-------3---|-----3-------3---|-----3-------3---|-----3-------3---| x2
D|---4---4---4---4-|-\-3---3---3---3-|-\-1---1---1---1-|-/-3---3---3---3-|
A|-----------------|-----------------|-----------------|-----------------|
E|-----------------|-----------------|-----------------|-----------------|
  
Git. 2
E|-----------------|-----------------|-----------------|-----------------|
B|-----------------|-----------------|-----------------|-----------------|
G|-----6-------6---|-----6-------6---|-----3-------3---|-----6-------6---| x2    piano
D|---4---4---4---4-|---4---4---4---4-|---4---4---4---4-|---4---4---4---4-|
A|-6-------6-------|-6-------6-------|-6-------6-------|-6-------6-------|
E|-----------------|-----------------|-----------------|-----------------|
  P.M.


----------
 Chorus 2  1:45
----------
 
Git. 1              
E|-11~-------------|-13~-------------|-7~--------------|--9~-------------|
B|-11~-------------|--?~-------------|-?~--------------|--?~-------------|
G|--8~-------------|--?~-------------|-?~--------------|--?~-------------|
D|-----------------|-----------------|-----------------|-----------------|
A|-----------------|-----------------|-----------------|-----------------|
E|-----------------|-----------------|-----------------|-----------------|

Git. 2
E|-----------------|-----------------|-----------------|-----------------|
B|-----------------|-----------------|-----------------|-----------------|
G|-----6-------6---|-----6-------6---|-----6-------6---|-----6-------6---|      piano
D|---4---4---4---4-|---4---4---4---4-|---4---4---4---4-|---4---4---4---4-|
A|-6-------6-------|-6-------6-------|-6-------6-------|-6-------6-------|
E|-----------------|-----------------|-----------------|-----------------|
  P.M.



Git. 1              
E|-11~-------------|-13~-------------|-7~--------------|--9~-------------|
B|-11~-------------|--?~-------------|-?~--------------|--?~-------------|
G|--8~-------------|--?~-------------|-?~--------------|--?~-------------|      pianissimo
D|-----------------|-----------------|-----------------|-----------------|
A|-----------------|-----------------|-----------------|-----------------|
E|-----------------|-----------------|-----------------|-----------------|

Git. 2
E|-----------------|-----------------|-----------------|-----------------|
B|-----------------|-----------------|-----------------|-----------------|
G|-----6-------6---|-----8-------8---|-----3-------3---|-----3-------3---| 
D|---4---4-------4-|---6---6-------6-|---4---4-------4-|---3---3-------3-|
A|-6---------6-----|-8---------8-----|-2---------2-----|-4---------4-----|
E|-----------------|-----------------|-----------------|-----------------|
  P.M.


---------
 Verse 3  2:09
---------

Git. 1  
E|-----------------|-----------------|-----------------|-----------------|
B|-----------------|-----------------|-----------------|-----------------|
G|-----3-------3---|-----3-------3---|-----3-------3---|-----3-------3---|         
D|---4---4---4---4-|---4---4---4---4-|---4---4---4---4-|---4---4---4---4-|
A|-6---------------|-6---------------|-6---------------|-6---------------|
E|-----------------|-----------------|-----------------|-----------------|
               
Git. 2
E|-----------------|-----------------|-----------------|-----------------|
B|-----------------|-----------------|-----------------|-----------------|
G|-----6-------6---|-----6-------6---|-----6-------6---|-----6-----------|
D|---4---4---4---4-|---4---4---4---4-|---4---4---4---4-|---4---4---4-4-4-|
A|-6-------6-------|-6-------6-------|-6-------6-------|-6-------6-------|
E|-----------------|-----------------|-----------------|-----------------|
  P.M.
  
                                                                                  

Git. 1  
E|-----------------|-----------------|-----------------|-----------------|
B|-----------------|-----------------|-----------------|-----------------|
G|-----3-------3---|-----3-------3---|-----3-------3---|-----3-------3---| 
D|---4---4---4---4-|-\-3---3---3---3-|-\-1---1---1---1-|-/-3---3---3---3-|
A|-----------------|-----------------|-----------------|-----------------|
E|-----------------|-----------------|-----------------|-----------------|

Git. 2  
E|-----------------|-----------------|-----------------|-----------------|
B|-----------------|-----------------|-----------------|-----------------|
G|-----3-------3---|-----3-------3---|-----3-------3---|-----3-------3---|         
D|---4---4---4---4-|---4---4---4---4-|---4---4---4---4-|---4---4---4---4-|
A|-6-------6-------|-6-------6-------|-6-------6-------|-6-------6-------|
E|-----------------|-----------------|-----------------|-----------------|
  P.M.              


------------
 Pre-Chorus 2:32                  
------------

  
E|-----------------|
B|-----------------|
G|-----6-------6---| 
D|---4---4---4---4-|
A|-6-------6-------|
E|-----------------|
  P.M.

  
Git. 1
E|-----------------|-----------------|-----------------|-----------------|
B|-----------------|-----------------|-----------------|-----------------|
G|-----6-------6---|-----8-------8---|-----3-------3---|-----3-------3---| 2x
D|---4---4-------4-|---6---6-------6-|---4---4-------4-|---3---3-------3-|
A|-6---------6-----|-8---------8-----|-2---------2-----|-4---------4-----|
E|-----------------|-----------------|-----------------|-----------------|

Git. 2
E|-----------------|-----------------|-----------------|-----------------|
B|-----------------|-----------------|-----------------|-----------------|
G|-----6-------6---|-----6-------6---|-----6-------6---|-----6-------6---| 2x   piano
D|---4---4---4---4-|---4---4---4---4-|---4---4---4---4-|---4---4---4---4-|
A|-6-------6-------|-6-------6-------|-6-------6-------|-6-------6-------|
E|-----------------|-----------------|-----------------|-----------------|
  P.M.

Git. 3
E|-----------------|-9-----9-----9---|-9-----9-----9---|-9-----9-----9---|
B|-9-----9-----9---|---9-----9-------|---7-----7-------|---9-----9-------|
G|---11----11------|-----11---11-----|-----8-----8-----|-----11----11----| 2x   piano
D|-----13----13----|-----------------|-----------------|-----------------|
A|-----------------|-----------------|-----------------|-----------------|
E|-----------------|-----------------|-----------------|-----------------|


----------
 Chorus 3  2:58
----------
  
Git. 1
E|-----------------|-----------------|-----------------|-----------------|
B|-----------------|-----------------|-----------------|-----------------|
G|-----6-------6---|-----8-------8---|-----3-------3---|-----3-------3---| 4x
D|---4---4-------4-|---6---6-------6-|---4---4-------4-|---3---3-------3-|
A|-6---------6-----|-8---------8-----|-2---------2-----|-4---------4-----|
E|-----------------|-----------------|-----------------|-----------------|


-------
 Outro  3:44
-------
  
E|-----------------|-----------------|-----------------|-----------------|
B|-----------------|-----------------|-----------------|-----------------|
G|-----6-------6---|-----8-------8---|-----3-------3---|-----3-------3---| 2x
D|---4---4-------4-|---6---6-------6-|---4---4-------4-|---3---3-------3-|
A|-6---------6-----|-8---------8-----|-2---------2-----|-4---------4-----|
E|-----------------|-----------------|-----------------|-----------------|
  
E|-----------------|   
B|-----------------|   
G|-15~-------------|   
D|-16~-------------|   
A|-16~-------------|   
E|-----------------|   


************************************

| /    slide up
| \    slide down
| P.M. palm muted
| ~    vibrato

************************************

            
            
Suggest correction
Creating personal tab
Creating personal tab
You can edit any tab online and save it as your Personal.

You can edit, replace or remove any tab part or add personal notes – all changes will be seen only by you.

Personal tabs can be accessed anytime from any device, even offline.
Learn more »
Give kudos to tab author, rate the tab!
1 2 3 4 5
comments
print report bad tab
guest
You may want to rate the tab now too:
select rating
Wanna post a correction for this tab? Suggest correction