Oops, an error
Loading. Please wait.

Leben Ruinieren bass

235 views 21 this week
no commentswrite comment
1 2 3 4 5
3 more votes to show rating
add to favorites
×
Save as Personal and add changes to this tab that will be seen only by you. Learn more ›
×
You can save this tab as Personal to edit and correct it or add notes. All changes will be seen only by you. Learn more »
launch autoscroll
font size
0
reset
guitar tuner
edit
Autoscroll
slow
fast
+/-
esc
set tempo
stop
About this tab version
Transcribed by ear from the original Version. Chorus is different from the original. Was this info helpful? Yes No
The tabs in the chorus are different from the original, but i think it's way more fun to play. If you want to
play it the intended way just use the bassline from the verse.

[Intro] (x2)
(0:19-0:38)
G|--------------|-----------------|------------|------------------|
D|9---9---9-7---|-9---7---9---7---|----7---9-7-|------6---7---9---|
A|------------9-|-------9-------9-|-5----------|7---7---7---7-----|
E|--------------|-----------------|------------|------------------|             
                                                              
G|--------------|-----------------|----------12-----|----------7----|
D|9---9---9-7---|-9---7---9---7---|12---12------12\-|7---7-7-----7\-|
A|------------9-|-------9-------9-|-----------------|---------------|
E|--------------|-----------------|-----------------|---------------|

G|--------------|-----------------|------------|------------------|
D|9---9---9-7---|-9---7---9---7---|----7---9-7-|------6---7---9---|
A|------------9-|-------9-------9-|-5----------|7---7---7---7-----|
E|--------------|-----------------|------------|------------------|             
                                                              
G|--------------|-----------------|----------12-----|----------7----|
D|9---9---9-7---|-9---7---9---7---|12---12------12\-|7---7-7-----7\-|
A|------------9-|-------9-------9-|-----------------|---------------|
E|--------------|-----------------|-----------------|---------------|

[Verse]
(0:38-1:15)
G|-------------------|-------------------|------------------------|------------------------|
D|-------------------|-------------------|------------------------|------------------------|
A|-------------------|-------------------|------------------------|------------------------|
E|7---7---7-7------7-|7---7---7-7------7-|10---10---10-10------10-|12---12---12-12------12-|

G|-------------------|-------------------|------------------------|-------------------|
D|-------------------|-------------------|------------------------|-------------------|
A|-------------------|-------------------|10---10---10-10------10-|-------------------|
E|7---7---7-7------7-|7---7---7-7------7-|------------------------|2---2---2-2------2-|

G|-------------------|-------------------|------------------------|------------------------|
D|-------------------|-------------------|------------------------|------------------------|
A|-------------------|-------------------|------------------------|------------------------|
E|7---7---7-7------7-|7---7---7-7------7-|10---10---10-10------10-|12---12---12-12------12-|

G|-------------------|-------------------|------------------------|-------------------|
D|-------------------|-------------------|------------------------|-------------------|
A|-------------------|-------------------|10---10---10-10------10-|-------------------|
E|7---7---7-7------7-|7---7---7-7------7-|------------------------|2---2---2-2------2-|

G|-------------------|-------------------|------------------------|------------------------|
D|-------------------|-------------------|------------------------|------------------------|
A|-------------------|-------------------|------------------------|------------------------|
E|7---7---7-7------7-|7---7---7-7------7-|10---10---10-10------10-|12---12---12-12------12-|

G|-------------------|-------------------|------------------------|-------------------|
D|-------------------|-------------------|------------------------|-------------------|
A|-------------------|-------------------|10---10---10-10------10-|-------------------|
E|7---7---7-7------7-|7---7---7-7------7-|------------------------|2---2---2-2------2-|

G|-------------------|-------------------|------------------------|------------------------|
D|-------------------|-------------------|------------------------|------------------------|
A|-------------------|-------------------|------------------------|------------------------|
E|7---7---7-7------7-|7---7---7-7------7-|10---10---10-10------10-|12---12---12-12------12-|

G|-------------------|-------------------|------------------------|-------------------|
D|-------------------|-------------------|------------------------|-------------------|
A|-------------------|-------------------|------------------------|-------------------|
E|7---7---7-7------7-|7---7---7-7------7-|-3----------------------|-------------------|

[Chorus]
(1:15-1:35)
G|--------------|-----------------|------------|------------------|
D|9---9---9-7---|-9---7---9---7---|----7---9-7-|------6---7---9---|
A|------------9-|-------9-------9-|-5----------|7---7---7---7-----|
E|--------------|-----------------|------------|------------------|             
                                                              
G|--------------|-----------------|----------12-----|----------7----|
D|9---9---9-7---|-9---7---9---7---|12---12------12\-|7---7-7-----7\-|
A|------------9-|-------9-------9-|-----------------|---------------|
E|--------------|-----------------|-----------------|---------------|

G|--------------|-----------------|------------|------------------|
D|9---9---9-7---|-9---7---9---7---|----7---9-7-|------6---7---9---|
A|------------9-|-------9-------9-|-5----------|7---7---7---7-----|
E|--------------|-----------------|------------|------------------|             
                                                              
G|--------------|-----------------|----------12-----|----------7----|
D|9---9---9-7---|-9---7---9---7---|12---12------12\-|7---7-7-----7\-|
A|------------9-|-------9-------9-|-----------------|---------------|
E|--------------|-----------------|-----------------|---------------|

[Verse]
(1:35-2:13)
G|-------------------|-------------------|------------------------|------------------------|
D|-------------------|-------------------|------------------------|------------------7h9---|
A|-------------------|-------------------|------------------------|------------------------|
E|7---7---7-7------7-|7---7---7-7------7-|10---10---10-10------10-|12---12---12-12---------|

G|-------------------|-------------------|------------------------|-------------------|
D|-------------------|-------------------|------------------------|--------------7h9--|
A|-------------------|-------------------|10---10---10-10------10-|-------------------|
E|7---7---7-7------7-|7---7---7-7------7-|------------------------|2---2---2-2--------|

G|-------------------|-------------------|------------------------|------------------------|
D|-------------------|-------------------|------------------------|------------------7h9---|
A|-------------------|-------------------|------------------------|------------------------|
E|7---7---7-7------7-|7---7---7-7------7-|10---10---10-10------10-|12---12---12-12---------|

G|-------------------|-------------------|------------------------|-------------------|
D|-------------------|-------------------|------------------------|--------------7h9--|
A|-------------------|-------------------|10---10---10-10------10-|-------------------|
E|7---7---7-7------7-|7---7---7-7------7-|------------------------|2---2---2-2--------|

G|-------------------|-------------------|------------------------|------------------------|
D|-------------------|-------------------|------------------------|------------------7h9---|
A|-------------------|-------------------|------------------------|------------------------|
E|7---7---7-7------7-|7---7---7-7------7-|10---10---10-10------10-|12---12---12-12---------|

G|-------------------|-------------------|------------------------|-------------------|
D|-------------------|-------------------|------------------------|--------------7h9--|
A|-------------------|-------------------|10---10---10-10------10-|-------------------|
E|7---7---7-7------7-|7---7---7-7------7-|------------------------|2---2---2-2--------|

G|-------------------|-------------------|------------------------|------------------------|
D|-------------------|-------------------|------------------------|------------------7h9---|
A|-------------------|-------------------|------------------------|------------------------|
E|7---7---7-7------7-|7---7---7-7------7-|10---10---10-10------10-|12---12---12-12---------|

G|-------------------|-------------------|------------------------|-------------------|
D|-------------------|-------------------|------------------------|-------------------|
A|-------------------|-------------------|------------------------|-------------------|
E|7---7---7-7------7-|7---7---7-7------7-|-3----------------------|-------------------|

[Chorus]
(2:13-2:30)
G|--------------|-----------------|------------|------------------|
D|9---9---9-7---|-9---7---9---7---|----7---9-7-|------6---7---9---|
A|------------9-|-------9-------9-|-5----------|7---7---7---7-----|
E|--------------|-----------------|------------|------------------|             
                                                              
G|--------------|-----------------|----------12-----|----------7----|
D|9---9---9-7---|-9---7---9---7---|12---12------12\-|7---7-7-----7\-|
A|------------9-|-------9-------9-|-----------------|---------------|
E|--------------|-----------------|-----------------|---------------|

G|--------------|-----------------|------------|------------------|
D|9---9---9-7---|-9---7---9---7---|----7---9-7-|------6---7---9---|
A|------------9-|-------9-------9-|-5----------|7---7---7---7-----|
E|--------------|-----------------|------------|------------------|             
                                                              
G|--------------|-----------------|----------12-----|----------7----|
D|9---9---9-7---|-9---7---9---7---|12---12------12\-|7---7-7-----7\-|
A|------------9-|-------9-------9-|-----------------|---------------|
E|--------------|-----------------|-----------------|---------------|

[Bridge]
(2:30-3:02)
G|------------------------|----------------|----------------|----------------|
D|------------------------|----------------|----------------|----------------|
A|10-10-10-10-10-10-10-10-|7-7-7-7-7-7-7-7-|----------------|2-2-2-2-2-2-2-2-|
E|------------------------|----------------|2-2-2-2-2-2-2-2-|----------------|

G|------------------------|----------------|----------------|----------------|
D|------------------------|----------------|----------------|----------------|
A|10-10-10-10-10-10-10-10-|7-7-7-7-7-7-7-7-|----------------|2-2-2-2-2-2-2-2-|
E|------------------------|----------------|2-2-2-2-2-2-2-2-|----------------|

G|----------------|----------------|----------------|
D|----------------|----------------|----------------|
A|----------------|----------------|----------------|
E|3-3-3-3-3-3-3-3-|5-5-5-5-5-5-5-5-|6-6-6-6-6-6-6-6-|

[Chorus]
(3:02-3:53)
G|--------|--------|---------|---------|
D|--------|--------|---------|---------|
A|--------|--------|---------|---------|
E|7-------|--------|10-------|12-------|

G|--------|--------|---------|---------|
D|--------|--------|---------|---------|
A|--------|--------|10-------|---------|
E|7-------|--------|---------|2--------|

G|--------------|-----------------|------------|------------------|
D|9---9---9-7---|-9---7---9---7---|----7---9-7-|------6---7---9---|
A|------------9-|-------9-------9-|-5----------|7---7---7---7-----|
E|--------------|-----------------|------------|------------------|             
                                                              
G|--------------|-----------------|----------12-----|----------7----|
D|9---9---9-7---|-9---7---9---7---|12---12------12\-|7---7-7-----7\-|
A|------------9-|-------9-------9-|-----------------|---------------|
E|--------------|-----------------|-----------------|---------------|

G|--------------|-----------------|------------|------------------|
D|9---9---9-7---|-9---7---9---7---|----7---9-7-|------6---7---9---|
A|------------9-|-------9-------9-|-5----------|7---7---7---7-----|
E|--------------|-----------------|------------|------------------|             
                                                              
G|--------------|-----------------|----------12-----|----------7----|
D|9---9---9-7---|-9---7---9---7---|12---12------12\-|7---7-7-----7\-|
A|------------9-|-------9-------9-|-----------------|---------------|
E|--------------|-----------------|-----------------|---------------|

G|--------------|-----------------|------------|------------------|
D|9---9---9-7---|-9---7---9---7---|----7---9-7-|------6---7---9---|
A|------------9-|-------9-------9-|-5----------|7---7---7---7-----|
E|--------------|-----------------|------------|------------------|             
                                                              
G|--------------|-----------------|----------12-----|----------7----|
D|9---9---9-7---|-9---7---9---7---|12---12------12\-|7---7-7-----7\-|
A|------------9-|-------9-------9-|-----------------|---------------|
E|--------------|-----------------|-----------------|---------------|

G|--------------|-----------------|------------|------------------|
D|9---9---9-7---|-9---7---9---7---|----7---9-7-|------6---7---9---|
A|------------9-|-------9-------9-|-5----------|7---7---7---7-----|
E|--------------|-----------------|------------|------------------|             
                                                              
G|--------------|-----------------|----------12-----|----------7----|
D|9---9---9-7---|-9---7---9---7---|12---12------12\-|7---7-7-----7\-|
A|------------9-|-------9-------9-|-----------------|---------------|
E|--------------|-----------------|-----------------|---------------|


******************

h - Hammer-On
\ - Slide down

******************

            
            
Suggest correction
Creating personal tab
Creating personal tab
You can edit any tab online and save it as your Personal.

You can edit, replace or remove any tab part or add personal notes – all changes will be seen only by you.

Personal tabs can be accessed anytime from any device, even offline.
Learn more »
Give kudos to tab author, rate the tab!
1 2 3 4 5
comments
print report bad tab
guest
You may want to rate the tab now too:
select rating
Wanna post a correction for this tab? Suggest correction