Oops, an error
Loading. Please wait.

Randale tab

version 1
version 1

Whole song

826 views 9 this week
3 commentsread comments
1 2 3 4 5
3 more votes to show rating
add to favorites
×
Save as Personal and add changes to this tab that will be seen only by you. Learn more ›
×
You can save this tab as Personal to edit and correct it or add notes. All changes will be seen only by you. Learn more »
launch autoscroll
font size
0
reset
how to read this tab
guitar tuner
edit
Autoscroll
slow
fast
+/-
esc
set tempo
stop
Tabs from Randale (Live), Berlin

This song could be played differently on other tapes. Some changes are possible, but not much. :) 
Thats the concert version of "Randale" live from Berlin.

-Das sind meine ersten Tabs. Bitte seid nicht so streng :)-

-------------------------------------------------------------------------------
                             Randale - Kraftklub
-------------------------------------------------------------------------------
Tabbed by: Christoph Bartsch
E-mail: fussballschiedsrichter@gmail.com

Tuning: normal (E-A-D-G-B-E)

!!!RIGHT ORDER: (1) (1.1) (2.1) (2.2) (1) (3) (2.1) (2.1) (2.2) (2.2) (4) (5) (2.1) (2.2) (6) (2.1) 
(2.2) (6) (2.1) (2.2) (5) (2.1) (2.2) (6) (2.1) (2.2) (6) (7) (8) (9) (2.1) (2.2) (6) (9)

Intro:

(1)                            (1.1)

e|---------------------------|-----------------------------------------------|
B|---------------------------|-----------------------------------------------|
G|---------------------------|--11------9------------------------------------|
D|--9-------------------9----|--9-------7------9-----------------------------|
A|--7---------5-6-------7----|-----------------7-----------------------------|
E|---------------------------|-----------------------------------------------|

(2.1)

e|---------------------------------------------------------------------------|
B|---------------------------------------------------------------------------|
G|---9-9-9-9--11111111-12-12-12-12--14-14-14-14------------------------------|
D|---------------------------------------------------------------------------|
A|---7-7-7-7--9-9-9-9--10-10-10-10--12-12-12-12------------------------------|
E|---------------------------------------------------------------------------|

(2.2)

e|---------------------------------------------------------------------------|
B|---------------------------------------------------------------------------|
G|--12-12-12-12--14-14-14-14--15-15-15-15--14-14-14-14-----------------------|
D|---------------------------------------------------------------------------|
A|--10-10-10-10--12-12-12-12--13-13-13-13--12-12-12-12-----------------------|
E|---------------------------------------------------------------------------|

ALTERNATIVE EASIER VERSION TO (2) / ALTERNATIVE EINFACHERE VERSION ZU (2)

e|---------------------------------------------------------------------------|
B|---------------------------------------------------------------------------|
G|---------------------------------------------------------------------------|
D|-2-2-2-2-4-4-4-4-5-5-5-5-7-7-7-7-5-5-5-5-7-7-7-7-8-8-8-8-7-7-7-7-----------|
A|---------------------------------------------------------------------------|
E|---------------------------------------------------------------------------|

(3)

e|---------------------------------------------------------------------------|
B|---------------------------------------------------------------------------|
G|----9--9--9--9-9--9-0------------------------------------------------------|
D|---9-10-11-10-9-10---------------------------------------------------------|
A|---------------------------------------------------------------------------|
E|---------------------------------------------------------------------------|

(4)

-swinging-

e|--12-11-10-9-8-7-6-5-4-3--12-11-10-9-8-7-6-5-4-3---------------------------|

(5) Verse / Strophe:

e|---------------------------------------------------------------------------|
B|---------------------------------------------------------------------------|
G|---------------------------------------------------------------------------|
D|--9------------------------------------------------------------------------|
A|--7------------------------------------------------------------------------|
E|---------------------------------------------------------------------------|

(6) Chorus / Refrain ("Hey, Randale!")

e|---------------------------------------------------------------------------|
B|---------------------------------------------------------------------------|
G|---------------------------------------------------------------------------|
D|--2-2-2-2---5-5-5-5--------------------------------------------------------|
A|---------------------------------------------------------------------------|
E|---------------------------------------------------------------------------|
    Hey       Randale

(7) Solo to Bridge after second Chorus

D|--2-0---0------------------------------------------------------------------|
A|------2---2-4-5-7----------------------------------------------------------|
E|---------------------------------------------------------------------------|

(8) Bridge (will be played, during Felix speak to the audience | wird gespielt, wenn Felix spricht)

D|--2-0---2------------------------------------------------------------------|
A|------2--------------------------------------------------------------------|
E|---------------------------------------------------------------------------|

(9) Karl's Solo "Meine kleine Schwester macht Randale in der Stadt"


D|--2-2-4-4-5-5-5-5-8-8-7-7-7------------------------------------------------|


(10) End on 

D|--9------------------------------------------------------------------------|
A|--7------------------------------------------------------------------------|

Problems? Write a comment or faster to correct: write a mail on fussballschiedsrichter@gmail.com

            
            
Suggest correction
Creating personal tab
Creating personal tab
You can edit any tab online and save it as your Personal.

You can edit, replace or remove any tab part or add personal notes – all changes will be seen only by you.

Personal tabs can be accessed anytime from any device, even offline.
Learn more »
Give kudos to tab author, rate the tab!
1 2 3 4 5
comments
print report bad tab
3 comments total.
-1 reply
petzithebaer 309 Dec 21, 2015 11:09 AM

didn't like this contribution

+3 reply
TRex96 97 Jan 08, 2016 08:26 AM, edited at 01:27 pm

Parts 2.1, und 2.2 sind Oktaven, keine Powerchords: also so spielen:(2.1)

guest
You may want to rate the tab now too:
select rating
Wanna post a correction for this tab? Suggest correction