Oops, an error
Loading. Please wait.

Ritalin Bass Tab

version 1
version 1

Whole song

1,748 views 3 this week
no commentswrite comment
1 2 3 4 5
x 4
add to favorites
launch autoscroll
font size
0
reset
guitar tuner
Autoscroll
slow
fast
+/-
esc
set tempo
stop
Help us to improve Ultimate-Guitar.com Take our survey!
×
Author
Difficulty
novice
Ritalin für alle Bassspieler da draußen!
Wenn euch was falsch zu sein scheint, schreibt mir ne Nachricht dann korrigiere ich es 
ggf.. Gitarrentab kommt auch noch! :)

INTRO

G|--------------------------------------------------------------------|
D|--------------------------------------------------------------------|
A|----------------------------------8---------------------------------|
E|--5------10----8----5-------10---------5----------------------------| x2

REFRAIN - Das in Klammern gesetzte wird nur hier am Anfang gespielt, bei Refrain 2 
fällts weg, beim letzten kommt es wieder)

G|---------------------------------------------------------------------|
D|---------------------------------------------------------------------|
A|---------------------------------------------------------------------|
E|-5-5--5-5-5--5-10-10--10-10-10--10-8-8--8-8-8--8--10-10--10-10-10--10|


G|---------------------------------------------------------------------|
D|---------------------------------------------------------------------|
A|---------------------------------------------------------------------|
E|-5-5--5-5-5--5-10-10--10-10-10--10-8-8--8-8-8--8--10-10-(8-7-5)------|

STROPHE

G|---------------------------------------------------------------------|
D|---------------------------------------------------------------------|
A|---------------------------------------------------------------------|
E|-5-5-5-5-5-5-5-5--10-10-10-10-10-10-10-10----------------------------| x3

ENDE STROPHE 1

G|---------------------------------------------------------------------|
D|---------------------------------------------------------------------|
A|-8-8-8-8-8-8-8-8-----------------------------------------------------|
E|------------------8--10-6--------------------------------------------|

ENDE STROPHE 2 (beim "A zu dem D zu dem H zu dem S"):

G|---------------------------------------------------------------------|
D|---------------------------------------------------------------------|
A|---8-8---------------------------------------------------------------|
E|-------8-10----------------------------------------------------------|

PRE-CHORUS ("Niiiiiiieeee")

G|---------------------------------------------------------------------|
D|---------------------------------------------------------------------|
A|---------------------------------------------------------------------|
E|-5-5-5-5-5-5-5-5--10-10-10-10-10-10--8-8-8-8-8-8---------------------|x2

- REFRAIN-

-STROPHE-  x2  + 1. Ende STROPHE 2 und 2. Ende STROPHE 1
(Bei Ende STROPHE  1 allerdings 11 statt 10 als letzten Ton)

-PRE-CHORUS-

- REFRAIN-

BRIDGE (x2)

G|---------------------------------------------------------------------|
D|---------------------------------------------------------------------|
A|-------------3-5-5-3-5-7-5-3-----------------------------------------|
E|--5-5-3-5-5----------------------------------------------------------| x3

ENDE BRIDGE 1

G|---------------------------------------------------------------------|
D|---------------------------------------------------------------------|
A|-8-8-8-3-3-3-6-6-6---------------------------------------------------|
E|-------------------6-6-6---------------------------------------------|

ENDE BRIDGE 2

G|---------------------------------------------------------------------|
D|---------------------------------------------------------------------|
A|-8-----3-----6-6-6---------------------------------------------------|
E|-------------------6-------------------------------------------------|

-INTRO-

-PRE-CHORUS-

-REFRAIN-
Suggest correction
comments
print report bad tab
guest
You may want to rate the tab now too:
select rating
Wanna post a correction for this tab? Suggest correction