Oops, an error
Loading. Please wait.

Songs Fuer Liam bass

2,939 views 9 this week
1 commentread comment
1 2 3 4 5
x 6
add to favorites
×
Save as Personal and add changes to this tab that will be seen only by you. Learn more ›
×
You can save this tab as Personal to edit and correct it or add notes. All changes will be seen only by you. Learn more »
launch autoscroll
font size
0
reset
guitar tuner
edit
Autoscroll
slow
fast
+/-
esc
set tempo
stop
Songs für Liam - Kraftklub - Bass Tab

Standard Tuning (EADG)

Very easy song to play only 4 notes for the whole song. I learned it in 5 minutes and 
I'm pretty sure that its 100% correct but if you find a mistake, call me. Have fun :)

Intro/Verse

G------------------------------------------------------------------------|
D------------------------------------------------------------------------|
A------------------------------------5-5-5-5-5-5-5-5--3-3-3-3-3-3-3-3----|
E---5-5-5-5-5-5-5-5-5-5-5-5-5-5-5-5--------------------------------------|

Chorus/Outro

(2x)

G------------------------------------------------------------------------|
D------------------------------------------------------------------------|
A-------------------5-5-5-5-5-5-5-5--3-3-3-3-3-3-3-3---------------------|
E---5-5-5-5-5-5-5-5----------------------------------3-3-3-3-3-3-3-3-----|

(2x)

G------------------------------------------------------------------------|
D------------------------------------------------------------------------|
A---------------------3-3-3-3-3-3-3-3-------------------5-5-5-5-5-5-5-5--|
E---5-5-5-5-5-5-5-5--------------------3-3-3-3-3-3-3-3-------------------|

Interlude

G------------------------------------------------------------------------|
D------------------------------------------------------------------------|
A------------------------------------------------------------------------|
E---5-5-5-5-5-5-5-5-5-5-5-5-5-5-5-5-5-5-5-5-5-5-5-5-5-5-5-5-5-5-5-5-5----|
Suggest correction
Creating personal tab
Creating personal tab
You can edit any tab online and save it as your Personal.

You can edit, replace or remove any tab part or add personal notes – all changes will be seen only by you.

Personal tabs can be accessed anytime from any device, even offline.
Learn more »
comments
print report bad tab
1 comment total.
0 reply
felix_PY 285 Jun 11, 2015 07:19 AM

Lack of accuracy. Tab incomplete. There are missing parts of the song and the rest is the least you could've tabbed. Add the right intro and the bridge and the end.

guest
You may want to rate the tab now too:
select rating
Wanna post a correction for this tab? Suggest correction