Oops, an error
Loading. Please wait.

Songs Fuer Liam Tab

version 1
version 1

Whole song

30,839 views 42 this week
2 commentsread comments
1 2 3 4 5
x 3
add to favorites
launch autoscroll
font size
0
reset
how to read this tab
guitar tuner
Autoscroll
slow
fast
+/-
esc
set tempo
stop
Help us to improve Ultimate-Guitar.com Take our survey!
×
Author
----------------------------------------------------------------
                  Kraftklub - Songs für Liam
----------------------------------------------------------------
Tabbed by: Uniraf
Email:Uniraf@gmail.com

riff1

e---------------------------------------------------------------|
h---------------------------------------------------------------|
G---------------------------------------------------------------|
D-----7--------------7----4-5-------7--------------7----5-4-----|
A-------7-5-7----------7--------------7-5-7----------7----------|
E-5------------5-5--------------5------------5-5----------------|

e---------------------------------------------------------------|
h---------------------------------------------------------------|
G---------------------------------------------------------------|
D-----7--------------7----4-5-------7--------------7----5-5-5---|
A-------7-5-7----------7--------------7-5-7----------7----------|
E-5------------5-5--------------5------------5-5----------------|

riff2

e--------------------------------------10-10-8-8-8--------------|
h---------------------8-8-8-8-10-10-10--------------------------|
G-7-7-7-7-10-10-10-10-------------------------------------------|
D---------------------------------------------------------------|
A---------------------------------------------------------------|
E---------------------------------------------------------------|

e---------------------------------------------------------------|
h--10-10-10-8-8-8-----------------------------------------------|
G-----------------10-10-10-7-5----------------------------------|
D---------------------------------------------------------------|
A---------------------------------------------------------------|
E---------------------------------------------------------------|

Intro: riff 1

A (riff1)
ich weiger mich das hinzunehm, alle stehn nur da.
Dabei passier'n so viele schlimme Dinge jeden Tag
Unzumutbarkeiten wie die neuen Folgen Scrubs,
generell Mario Barth, doch die Leute wollen das.
D (riff2)
Mittlerweile kommt zum dritten Mal das selbe Lied.
Das ist keine Musik, dass sind die Black Eyed Peas.
A (riff1)
Wir müssen rausgehen, hier darf man nicht mehr rauchen an der Bar.
Die Welt geht vor die Hunde, Mädchen, traurig aber wahr

              A              C                     G
Wenn du mich küsst schreibt Noel wieder Songs für Liam!
              D
Wenn du mich küsst!
              A                    C                    G
Wenn du mich küsst kommen unsere Freunde zurück aus Berlin!
              D
Wenn du mich küsst!
                   A                  C                           G
Und wenn du mich küsst, dann ist die Welt ein bisschen weniger scheiße!
              D
Wenn du mich küsst!
              A                C                   G
Wenn du mich küsst bleibst du hier oder gehen wir beide!
              D
Wenn du mich küsst!

A (riff1)
Hättest du mich mal ein bisschen früher geküsst,
dann wäre AIDS jetzt besiegt und die 90tees nicht zurück.
Uns beide hätte man nicht in der S-Bahn kontrolliert
und Josh Homme hätte nie die Arctic Monkeys produziert.
D (riff2)
Vieles wäre nie passiert, Dinge, die vermeidbar sind.
Dann gäb es keinen einzigen romantischen Till Schweiger Film.
A (riff1)
Daran kann man nichts ändern, dass war alles gestern,
aber du hast jetzt die Chance unsere Zukunft zu verbessern.

              A              C                     G
Wenn du mich küsst schreibt Noel wieder Songs für Liam!
              D
Wenn du mich küsst!
              A                    C                    G
Wenn du mich küsst kommen unsere Freunde zurück aus Berlin!
              D
Wenn du mich küsst!
                   A                  C                           G
Und wenn du mich küsst, dann ist die Welt ein bisschen weniger scheiße!
              D
Wenn du mich küsst!
              A                C                   G
Wenn du mich küsst bleibst du hier oder gehen wir beide!
              D
Wenn du mich küsst!

A
Wenn du mich küsst...
Wenn du mich küsst...
Wenn du mich küsst...
Wenn du mich küsst...
             C
Wenn du mich küsst...
             G
Wenn du mich küsst...
             D
Wenn du mich küsst...
             A
Wenn du mich küsst...
             C
Wenn du mich küsst...
             G
Wenn du mich küsst...
             D
Wenn du mich küsst...

              A              C                     G
Wenn du mich küsst schreibt Noel wieder Songs für Liam!
              D
Wenn du mich küsst!
              A                    C                    G
Wenn du mich küsst kommen unsere Freunde zurück aus Berlin!
              D
Wenn du mich küsst!
                   A                  C                           G
Und wenn du mich küsst, dann ist die Welt ein bisschen weniger scheiße!
              D
Wenn du mich küsst!
              A                C                   G
Wenn du mich küsst bleibst du hier oder gehen wir beide!
              D
Wenn du mich küsst!

              A
Wenn du mich küsst!
              C
Wenn du mich küsst!
              G
Wenn du mich küsst!
              D
Wenn du mich küsst!
              A
Wenn du mich küsst!
              C
Wenn du mich küsst!
              G
Wenn du mich küsst!
              D
Wenn du mich küsst!
              A
Wenn du mich küsst!
              C
Wenn du mich küsst!
              G
Wenn du mich küsst!
              D
Wenn du mich küsst!
              A
Wenn du mich küsst!
              C
Wenn du mich küsst!
              G      D (stop)
Wenn du mich küsst!

Wenn du mich küsst!
Suggest correction
Give kudos to tab author, rate the tab!
1 2 3 4 5
comments
print report bad tab
2 comments total.
0 reply
petzithebaer 309 Mar 07, 2012 11:36 AM

Die Akkorde stimmen nur vom Grundton her, du hast Moll/ Dur vergessen

0 reply
LucaNC 10 Mar 16, 2012 08:11 AM

Wär nich schlecht wenn man beide Gitarren hätte.
Im chorus z.B. die lead

guest
You may want to rate the tab now too:
select rating
Wanna post a correction for this tab? Suggest correction