Oops, an error
Loading. Please wait.

Unsere Fans tab

6,801 views 30 this week
4 commentsread comments
1 2 3 4 5
x 8
add to favorites
×
Save as Personal and add changes to this tab that will be seen only by you. Learn more ›
×
You can save this tab as Personal to edit and correct it or add notes. All changes will be seen only by you. Learn more »
launch autoscroll
font size
0
reset
how to read this tab
guitar tuner
edit
Autoscroll
slow
fast
+/-
esc
set tempo
stop
Unsere Fans

[Intro] 
e|------------------------|
B|------------------------|
G|--------7-6-5-----5-----|
D|-7-7-7--7-6-5---3-5-5-7-|
A|-7-7-7--5-4-3---3-3-5-7-|
E|-5-5-5----------1---3-5-|x2

[Chorus]
e|----------------------------------------------------------------------|
B|----------------------------------------------------------------------|
G|-------5-7-7-7-6-5-5-5-5-5-5-5-5--10-10-10-10-5-5-5-7-----------------|
D|-7-7-7-5-7-7-7-6-5-5-5-5-5-5-5-5--10-10-10-10-5-5-5-7-7-7-7-7-7-7-7-7-|
A|-7-7-7-3-5-5-5-4-3-3-3-3-3-3-3-3—-8--8--8--8--3-3-3-5-7-7-7-7-7-7-7-7-|
E|-5-5-5------------------------------------------------5-5-5-5-5-5-5-5-| x4

[Verse]
 (00:54)          
e|------------------------|
B|------------------------|
G|-------5------------7-6-|
D|---7--------------5-----|
A|-----7----------3-------|
E|-5----------------------| x4

[Chorus]

[Verse2]
 (01:43)
e|------5--------------------------|
B|---------------------6-----------|
G|-----------------5-7---7-5-7-5---|
D|-7--7---7-7--------------------7-|
A|---------------------------------|
E|---------------------------------| x4
 Ab 01:53 dazu
e|------------------------|
B|------------------------|
G|--------7-6-5---7-5-----|
D|-7-7-7--7-6-5---7-5-5-7-|
A|-7-7-7--5-4-3---5-3-5-7-|
E|-5-5-5--------------3-5-| x4
(also quasi zweimal nur das obere, dann zweimal beides, dann zweimal nur das untere)

[Chorus]

[Bridge]
 (02:41)
e|---------------------------------------------------|
B|---------------------------------------------------|
G|-------12-11--------10-9---------5-9---------5-5-5-|
D|-7-7-7-12-11--7-7-7-10-9---7-7-7-5-9---7-7-7-5-5-5-|
A|-7-7-7-10-9---7-7-7-8--7---7-7-7-3-7---7-7-7-3-3-3-|
E|-5-5-5--------5-5-5--------5-5-5-------5-5-5-------| x4
 Ab 02:52 SOLO dazu
e|--------------------------------------------------|
B|--------------------------------------------------|
G|-14-14-14-14-14---14-14-14-14-14------------------|
D|-----------------------------------13-13-13----14-|
A|--------------------------------------------15----|
E|--------------------------------------------------|

[Chorus]

[Solo2]
 (03:32)
e|----12-12----------15-12-12-------|    |-15-12-12-------|
B|-13-------12-12-------------10-10-|    |----------10-10-|
G|----------------------------------|    |----------------|
D|----------------------------------|    |----------------|
A|----------------------------------|    |----------------|
E|----------------------------------| x2 |----------------|

Tab by duncan.wick
Suggest correction
Creating personal tab
Creating personal tab
You can edit any tab online and save it as your Personal.

You can edit, replace or remove any tab part or add personal notes – all changes will be seen only by you.

Personal tabs can be accessed anytime from any device, even offline.
Learn more »
comments
print report bad tab
4 comments total. Showing first comments.
+2 reply
xchris1991 90 Sep 24, 2014 01:19 AM

sollte es nicht so sein?

[Intro]
e|------------------------|
B|------------------------|
G|--------7-6-5-----5-----|
D|-7-7-7--7-6-5---3-5-5-7-|
A|-7-7-7--5-4-3---3-3-5-7-|
E|-5-5-5----------1---3-5-|

0 reply
JKlinghoffer 90 Jan 03, 2015 03:44 AM

Gleiche chords wie im Chorus, mit dem hohen F

[Intro]
e|-------------------------------|
B|-------------------------------|
G|--------7-6-5---10-10-10-5-----|
D|-7-7-7--7-6-5---10-10-10-5-5-7-|
A|-7-7-7--5-4-3---8--8--8--3-5-7-|
E|-5-5-5---------------------3-5-|

Mit bendings

[Verse2]
(01:43)
e|---------------------------------|
B|---------------------6-----------|
G|------5----------5b7---7br5-7p5---|
D|-7--7---7-7--------------------7-|
A|---------------------------------|
E|---------------------------------| x4

Then Bridge is also different:

e|---------------------------------------------------|
B|---------------------------------------------------|
G|-------12-11--------10-9---------5-8---------6-6-6-|
D|-7-7-7-12-11--7-7-7-10-9---7-7-7-5-8---3-3-3-6-6-6-|
A|-7-7-7-10-9---7-7-7-8--7---7-7-7-3-6---3-3-3-4-4-4-|
E|-5-5-5--------5-5-5--------5-5-5-------1-1-1-------|
| |
e|---------------------------------------------------|
B|---------------------------------------------------|
G|-------12-11--------10-9---------5-8---------5-5-5-|
D|-7-7-7-12-11--7-7-7-10-9---7-7-7-5-8---3-3-3-5-5-5-|
A|-7-7-7-10-9---7-7-7-8--7---7-7-7-3-6---3-3-3-3-3-3-|
E|-5-5-5--------5-5-5--------5-5-5-------1-1-1-------| x2

Ending solo goes like this

e|----12-12----------15-12-12-------| |-15-12-12-------|
B|-13-------13-13-------------10-10-| |----------10-10-|
G|----------------------------------| |----------------|
D|----------------------------------| |----------------|
A|----------------------------------| |----------------|
E|----------------------------------|

Ändere die Sachen noch, dann passt alles.
Ansonsten gut gemacht!

0 reply
noxeo 10 Jan 09, 2015 12:22 PM

weiß nicht... mir kommt vor bei der ersten Verse(00:54) fehlen ein paar töne

guest
You may want to rate the tab now too:
select rating
Wanna post a correction for this tab? Suggest correction