Oops, an error
Loading. Please wait.

Weit Weg Tab

31 views 1 this week
no commentswrite comment
1 2 3 4 5
3 more votes to show rating
add to favorites
launch autoscroll
font size
0
reset
how to read this tab
guitar tuner
Autoscroll
slow
fast
+/-
esc
set tempo
stop
Help us to improve Ultimate-Guitar.com Take our survey!
×
Author
Difficulty
intermediate
Hab mich mal an Kraftklubs Weit Weg versucht. Sicherlich nicht alles 100% richtig, aber ich habe es mir grade
mal so zusammengehört und vielleicht hilft es ja jemandem und gibt ihm nen Ansatz.

[Intro]
     B                F#m                 E                G
e|--------------------9--x-9--9--9--9-----7-x-7-7-7-7-7-----------------------|
B|---7-x-7-7-7-7-7----10-x-10-10-10-10----8-x-8-8-8-8-8----12-x-12-12-12-12---|
G|---7-x-7-7-7-7-7----11-x-11-11-11-11----9-x-9-9-9-9-9----12-x-12-12-12-12---|
D|---9-x-9-9-9-9-9----11-x-11-11-11-11----9-x-9-9-9-9-9----12-x-12-12-12-12---|
A|---9-x-9-9-9-9-9----9--x-9--9--9--9-----7-x-7-7-7-7-7----10-x-10-10-10-10---|
E|---7-x-7-7-7-7-7------------------------------------------------------------|

     B                F#m                 E                G
e|--------------------9--x-9--9--9--9-----7-x-7-7-7-7-7-----------------------|
B|---7-x-7-7-7-7-7----10-x-10-10-10-10----8-x-8-8-8-8-8----12-----------------|
G|---7-x-7-7-7-7-7----11-x-11-11-11-11----9-x-9-9-9-9-9----12-----------------|
D|---9-x-9-9-9-9-9----11-x-11-11-11-11----9-x-9-9-9-9-9----12-----------------|
A|---9-x-9-9-9-9-9----9--x-9--9--9--9-----7-x-7-7-7-7-7----10-----------------|
E|---7-x-7-7-7-7-7------------------------------------------------------------|

[Verse]
Riff
e|--------------------------------------------------------------------------------|
B|--------------------------------------------------------------------------------|
G|--------------------------------------------------------------------------------|
D|--------------0-0-0-------------------------------0-0-0-------------------------|
A|--2-2-2-------------------------------2-2-2-------------------------1-1-1-------|
E|--------2-2-2-------2-2-2-3-3-3-0-0-0-------2-2-2-------2-2-2-3-3-3-------------|  x2

[Break]
e|-----------------------------------------------------------------------|
B|--------b7-----b3-------b5------b2-------b7------b3------b10------b7---|
G|--------------------7-7------------------------------------------------|
D|---9-9-----4-4------7-7-----4-4------9-9-----4-4-----5-5------2-2------|
A|---9-9-----4-4------5-5-----2-2------9-9-----4-4-----5-5------2-2------|
E|---7-7-----2-2--------------2-2------7-7-----2-2-----3-3------0-0------| x2

e|---(die erste Gitarre spielt währenddessen weiter das Verseriff)-----------|
B|---------------------------------------------------------------------------|
G|-----11~~~------10-7-10-11~~~---------11~~~-------10-7-10-4~~~-------------|
D|---------------------------------------------------------------------------|
A|---------------------------------------------------------------------------|
E|---------------------------------------------------------------------------|

e|---------------------------------------------------------------------------|
B|---------------------------------------------------------------------------|
G|---------------------------------------------------------------------------|
D|----2---2---2--------4---4---4---------------------------------------------|
A|----2---2---2--------4---4---4---------------------------------------------|
E|----0---0---0--------2---2---2---------------------------------------------|

[Chorus]
     B            F#m          E            G     A#
e|--------------------------------------------------------------------|
B|---7-7-7-7-7-7------------------------------------------------------|
G|---7-7-7-7-7-7--2-2-2-2-2-2-----------------------------------------| die Leadgitarre spielt währendessen 
D|---9-9-9-9-9-9--4-4-4-4-4-4--2-2-2-2-2-2--5-5-5-8-8-8---------------| irgendein Fill, das ich nicht
A|---9-9-9-9-9-9--4-4-4-4-4-4--2-2-2-2-2-2--5-5-5-8-8-8---------------| rausbekomme
E|---7-7-7-7-7-7--2-2-2-2-2-2--0-0-0-0-0-0--3-3-3-6-6-6--------4x-----|

Lick in die zweite Strophe:
e|---------------------------------------------------------------------------|
B|---------------------------------------------------------------------------|
G|---------------------------------------------------------------------------|
D|-----0-2-3-0-2-------------------------------------------------------------|
A|---2-----------2~~~--------------------------------------------------------|
E|---------------------------------------------------------------------------|

[Verse 2]
e|---------------------------------------------------------------------------|
B|---------------------------------------------------------------------------|
G|--------------7-7-7----------------------------7-7-7-----------------------|
D|--9-9-9-4-4-4-7-7-7-4-4-4-5-5-2-2--9-9-9-4-4-4-7-7-7-4-4-4-5-5-8-8---------|
A|--9-9-9-4-4-4-5-5-5-4-4-4-5-5-2-2--9-9-9-4-4-4-5-5-5-4-4-4-5-5-8-8---------|
E|--7-7-7-2-2-2-------2-2-2-3-3-0-0--7-7-7-2-2-2-------2-2-2-3-3-6-6---------|

[Break]
e|-----------------------------------------------------------------------|
B|--------b7-----b3-------b5------b2-------b7------b3------b10------b7---|
G|--------------------7-7------------------------------------------------|
D|---9-9-----4-4------7-7-----4-4------9-9-----4-4-----5-5------2-2------|
A|---9-9-----4-4------5-5-----2-2------9-9-----4-4-----5-5------2-2------|
E|---7-7-----2-2--------------2-2------7-7-----2-2-----3-3------0-0------| x2

e|---------------------------------------------------------------------------|
B|---------------------------------------------------------------------------|
G|---------------------------------------------------------------------------|
D|----2---2---2--------4---4---4---------------------------------------------|
A|----2---2---2--------4---4---4---------------------------------------------|
E|----0---0---0--------2---2---2---------------------------------------------|

[Chorus]
     B            F#m          E            G     A#
e|--------------------------------------------------------------------|
B|---7-7-7-7-7-7------------------------------------------------------|
G|---7-7-7-7-7-7--2-2-2-2-2-2-----------------------------------------| 
D|---9-9-9-9-9-9--4-4-4-4-4-4--2-2-2-2-2-2--5-5-5-8-8-8---------------| 
A|---9-9-9-9-9-9--4-4-4-4-4-4--2-2-2-2-2-2--5-5-5-8-8-8---------------| 
E|---7-7-7-7-7-7--2-2-2-2-2-2--0-0-0-0-0-0--3-3-3-6-6-6--------4x-----|

[Bridge]
e|-----------------------------------------------------------------------------|    
B|-----------------------------------------------------------------------------|   \
G|---4-4-4-4-6-6-6-6-7-7-7-7-9-9-9-9-11-11-11-11-11-11-11-11-------------------|    |
D|-----------------------------------------------------------------------------|    |
A|---2-2-2-2-4-4-4-4-5-5-5-5-7-7-7-7-9--9--9--9--9--9--9--9--------------------|    |
E|-----------------------------------------------------------------------------|     \
                                                                                      >  2x
e|-----------------------------------------------------------------------------|     /
B|-----------------------------------------------------------------------------|    |
G|---12-12-12-12-9-9-9-9-14-14-14-14-11-11-11-11-16-16-16-16-16-16-16-16-------|    |
D|-----------------------------------------------------------------------------|    |
A|---10-10-10-10-7-7-7-7-12-12-12-12-9--9--9--9--14-14-14-14-14-14-14-14-------|   /
E|-----------------------------------------------------------------------------|

e|-----------------------------------------------------------------------------|
B|-----------------------------------------------------------------------------|
G|---14-14----12-12----9--9-----7-7----9--9--9--9--9--9--9--9------------------|
D|-----------------------------------------------------------------------------|
A|---12-12----10-10----11-11----9-9----11-11-11-11-11-11-11-11-----------------|
E|-----------------------------------------------------------------------------|

e|-----------------------------------------------------------------------------|
B|-----------------------------------------------------------------------------|
G|---14-14----16-16----17-17----12-12----14-14-14-14-14-14-14-14---------------|
D|-----------------------------------------------------------------------------|
A|---12-12----14-14----15-15----10-10----12-12-12-12-12-12-12-12---------------|
E|-----------------------------------------------------------------------------|

[Intro]
     B                F#m                 E                G
e|--------------------9--x-9--9--9--9-----7-x-7-7-7-7-7-----------------------|
B|---7-x-7-7-7-7-7----10-x-10-10-10-10----8-x-8-8-8-8-8----12-x-12-12-12-12---|
G|---7-x-7-7-7-7-7----11-x-11-11-11-11----9-x-9-9-9-9-9----12-x-12-12-12-12---|
D|---9-x-9-9-9-9-9----11-x-11-11-11-11----9-x-9-9-9-9-9----12-x-12-12-12-12---|
A|---9-x-9-9-9-9-9----9--x-9--9--9--9-----7-x-7-7-7-7-7----10-x-10-10-10-10---|
E|---7-x-7-7-7-7-7------------------------------------------------------------|

     B                F#m                 E                G
e|--------------------9--x-9--9--9--9-----7-x-7-7-7-7-7-----------------------|
B|---7-x-7-7-7-7-7----10-x-10-10-10-10----8-x-8-8-8-8-8----12-----------------|
G|---7-x-7-7-7-7-7----11-x-11-11-11-11----9-x-9-9-9-9-9----12-----------------|
D|---9-x-9-9-9-9-9----11-x-11-11-11-11----9-x-9-9-9-9-9----12-----------------|
A|---9-x-9-9-9-9-9----9--x-9--9--9--9-----7-x-7-7-7-7-7----10-----------------|
E|---7-x-7-7-7-7-7------------------------------------------------------------|

[Chorus]
     B            F#m          E            G     A#
e|--------------------------------------------------------------------|
B|---7-7-7-7-7-7------------------------------------------------------|
G|---7-7-7-7-7-7--2-2-2-2-2-2-----------------------------------------| 
D|---9-9-9-9-9-9--4-4-4-4-4-4--2-2-2-2-2-2--5-5-5-8-8-8---------------| 
A|---9-9-9-9-9-9--4-4-4-4-4-4--2-2-2-2-2-2--5-5-5-8-8-8---------------| 
E|---7-7-7-7-7-7--2-2-2-2-2-2--0-0-0-0-0-0--3-3-3-6-6-6--------4x-----|

[Outro}
e|---------------------------------------------------------------------------------------------|
B|---------------------------------------------------------------------------------------------|
G|-------------------11-11-11-11-11-11-11-11-10-10-10-10-10-10-10-10-11-11-11-11-11-11-11-11---|
D|---------------------------------------------------------------------------------------------|
A|---9-9-9-9-9-9-9-9-9--9--9--9--9--9--9--9--8--8--8--8--8--8--8--8--9--9--9--9--9--9--9--9----|
E|---7-7-7-7-7-7-7-7---------------------------------------------------------------------------|

e|---------------------------------------------------------------------------------------------|
B|---------------------------------------------------------------------------------------------|
G|-------------------11-11-11-11-11-11-11-11-10-10-10-10-10-10-10-10-14-14-14-14-14-14-14-14---|
D|---------------------------------------------------------------------------------------------|
A|---9-9-9-9-9-9-9-9-9--9--9--9--9--9--9--9--12-12-12-12-12-12-12-12-16-16-16-16-16-16-16-16---|
E|---7-7-7-7-7-7-7-7---------------------------------------------------------------------------|

e|--------------------------------------------|
B|--------------------------------------------|
G|--------------------------------------------|
D|--------------0-0-0-------------------------|
A|--2-2-2-------------------------------------|
E|--------2-2-2-------2-2-2-3-3-3-0-0-0-------|



************************************

| x  Dead note
| b  Bend
| ~  Vibrato

************************************
Suggest correction
Give kudos to tab author, rate the tab!
1 2 3 4 5
comments
print report bad tab
guest
You may want to rate the tab now too:
select rating
Wanna post a correction for this tab? Suggest correction