Oops, an error
Loading. Please wait.

Radio-Activity tab

version 1
version 1

Whole song

4,570 views 9 this week
3 commentsread comments
1 2 3 4 5
x 5
add to favorites
×
Save as Personal and add changes to this tab that will be seen only by you. Learn more ›
×
You can save this tab as Personal to edit and correct it or add notes. All changes will be seen only by you. Learn more »
launch autoscroll
font size
0
reset
how to read this tab
guitar tuner
edit
Autoscroll
slow
fast
+/-
esc
set tempo
stop
Author
-------------------------------------------------------------------------------
                        Kraftwerk - Radio-activity
-------------------------------------------------------------------------------

Guitar 1 (or bass)
e|---------------------------------------------------------------------------|
B|---------------------------------------------------------------------------|
G|---------------------------------------------------------------------------|
D|---------------------------------------------------------------------------|
A|---------------------------------------------------------------------------|
E|-3-3-3-3-3-3-3-3-3-3-3-3-3-3-3--1-1-1-1-1-1-1-1-1-1-1---5-5-5-5-5-5-5-5-5--|
Palm Mute everything ,through the whole song.
listen to the song for the right number of string hits

Guitar 2

Morse code (play on e : 19):
.-. .- -.. .. --- .- -.-. - .. ...- .. - -..--

e|-----------------------------------------------------------------19----------|
B|-----------------------------------------------------------------------------|
G|-----------------------------------------------------------------------------|
D|-----------------------------------------------------------------------------|
A|-----------------------------------------------------------------------------|
E|-----------------------------------------------------------------------------|

The Melody

e|----------17--17------17------17---19---17--15--|
B|-----17-----------17------17--------------------|
G|------------------------------------------------|
D|------------------------------------------------|
A|------------------------------------------------|
E|------------------------------------------------|


e|------------------------------------------------|
B|----------17--17------17------17---19---17--15--|
G|-----17-----------17------17--------------------|
D|------------------------------------------------|
A|------------------------------------------------|
E|------------------------------------------------|

Second morse code
... --- ... --- ... --- ... --- ... --- ... --- ... --- ... --- ... ---
e|-----------------------------------------------------------------19----------|
B|-----------------------------------------------------------------------------|
G|-----------------------------------------------------------------------------|
D|-----------------------------------------------------------------------------|
A|-----------------------------------------------------------------------------|
E|-----------------------------------------------------------------------------|

            
            
Suggest correction
Creating personal tab
Creating personal tab
You can edit any tab online and save it as your Personal.

You can edit, replace or remove any tab part or add personal notes – all changes will be seen only by you.

Personal tabs can be accessed anytime from any device, even offline.
Learn more »
comments
print report bad tab
3 comments total.
0 reply
mulletman500 539 Sep 05, 2006 11:32 AM

I think maybe the melody is

e|----------16--16------16------16---19---18--16--|
B|-----16-----------16------16--------------------|
G|------------------------------------------------|
D|------------------------------------------------|
A|------------------------------------------------|
E|------------------------------------------------|

e|------------------------------------------------|
B|----------16--16------16------16---19---18--16--|
G|-----15-----------15------15--------------------|
D|------------------------------------------------|
A|------------------------------------------------|
E|------------------------------------------------|

0 reply
Gwrhkhsh 114 Dec 06, 2008 10:15 AM

I play it as:

e|--|17--17--17----17|20--1917--------|
B|17|------17--17----|----------------|

e|--|13--13--13----13|17--1513--------|
B|13|------13--13----|----------------|


And the bass line is basically

x4               x4
A|0-0-0-0-0-0-0-0-|----------------|
E|----------------|1-1-1-1-1-1-1-1-|


That's all probably. Very simple song.

0 reply
jay_freeman 10 Aug 28, 2013 10:51 AM

For me this version works better

e|----------6----6-------6------------9----8---6--|
B|------6------------6-------6---6----------------|
G|------------------------------------------------|
D|------------------------------------------------|
A|------------------------------------------------|
E|------------------------------------------------|

e|------------------------------------------------|
B|-----------7---7-------7------------10---9---7--|
G|------6------------6-------6---6----------------|
D|------------------------------------------------|
A|------------------------------------------------|
E|------------------------------------------------|

guest
You may want to rate the tab now too:
select rating
Wanna post a correction for this tab? Suggest correction