Oops, an error
Loading. Please wait.

Bajo Los Escombros tab

by Kraken
24 views 1 this week
no commentswrite comment
1 2 3 4 5
3 more votes to show rating
add to favorites
×
Save as Personal and add changes to this tab that will be seen only by you. Learn more ›
×
You can save this tab as Personal to edit and correct it or add notes. All changes will be seen only by you. Learn more »
launch autoscroll
font size
0
reset
how to read this tab
guitar tuner
edit
Autoscroll
slow
fast
+/-
esc
set tempo
stop
Les mando los principales riff de este tema bien cañero

E---------------------------------------------4x
B---------------------------------------------
G---------------------------------------------
D---------------------------------------------
A---------------------------------------------
D-0-0-0-0-0-0-2-0-3-0-0-0-0-0-0-3-0-5-0-0-0-0-
pm...........................................


E------------------------------------------2x
B------------------------------------------
G------------------------------------------
D-0-----------1-----------3----------------
A-0-----------1-----------3----------------
D-0-0-0-0-3-0-1-1-1-1-5-0-3-3-3-3-6-6p3-5--

Aqui comienza a cantar:


E-----------------------------------6x
B-----------------------------------
G-------5-5-------------------------
D-0-----5-5-------------------------
A-0-----3-3--11111111-00000000------
D-0-3-2-----------------------------
 El camino esta lleno de piedras y...

E--------------------------------
B-----------------------------2--
G---------7-------5-----3-3---2--
D---------7-------5-----3-3-2-2--
A---------5-------3-----1-1-0-0--
D-0-0-3-2---0-3-2----------------

 Precoro
E----------------------- 2x
B-----------------------
G-----------------------
D-5-5-----8-8-----3/5-5-
A-5-5-----8-8-----3/5-5-
D-----0-0-----0-0-------
 La mañana no sonrié en este mar de dolor

 Coro

E------------------------------------------4x
B------------------------------------------
G------------------------------------------
D-0-----------1-----------3----------------
A-0-----------1-----------3----------------
D-0-0-0-0-3-0-1-1-1-1-5-0-3-3-3-3-6-6p3-5--

Base del Solo

E------------------------------------------3x
B------------------------------------------
G------------------------------------------
D------------------------------------------
A------------------------------------------
D-0-0-0-0-3-0-1-1-1-1-5-0-3-3-3-3-6-6p3-5--
pm.........................................

E------------------------------------
B------------------------------------
G----2-3-5-7-------------------------
D-5--2-3-5-7-------------------------
A-5--0-1-3-5-5-5-5-5-5-5-7-7-7-7-7-7-
D-5----------------------------------

Se repite el coro 1 tono mas alto y termina con el
primer riff de la introducción también 1 tono mas alto

            
            
Suggest correction
Creating personal tab
Creating personal tab
You can edit any tab online and save it as your Personal.

You can edit, replace or remove any tab part or add personal notes – all changes will be seen only by you.

Personal tabs can be accessed anytime from any device, even offline.
Learn more »
Give kudos to tab author, rate the tab!
1 2 3 4 5
comments
print report bad tab
guest
Wanna post a correction for this tab? Suggest correction