Oops, an error
Loading. Please wait.

Fujitivo tab

version 1
version 1

Whole song

by Kraken
19 views 1 this week
no commentswrite comment
1 2 3 4 5
3 more votes to show rating
add to favorites
×
Save as Personal and add changes to this tab that will be seen only by you. Learn more ›
×
You can save this tab as Personal to edit and correct it or add notes. All changes will be seen only by you. Learn more »
launch autoscroll
font size
0
reset
how to read this tab
guitar tuner
edit
Autoscroll
slow
fast
+/-
esc
set tempo
stop
Hola a todos, aquí enviándoles más repertorio de este grupazo
Colombiano, este es un tema del Kraken I pa´ que se lo sollen
parceros. Eso sí escuchen
bien el tema.
Afinación, mi natural
Intro:                          Riff de la intro:
E----------------               E----------------------------
A-2-2-3-2-2-0----               A-4-4-2-4-4-4-2-4?2-4-2-0-2-
G-4-4-5-4-2-0----               D--0-------0----------------

Este riff de la intro se repite hasta que se empieza a cantar
el tema.

Vistió la inocencia su vida?  La vida es ruleta?

A-2---3---2---3---4-2----    A-4-4-4-4-2-2-2-2---------------
D-4---5---4---5-------5-4    D----------------5-5-5-5-4-4-4-4

Fugitivo, fugitivo?

A-2---2--------------------2---2------------------- REPITE
D-4---4----0-0-0-0-0-0-0-0-4---4----0-0-0-0-0-0-0-0 ESTO 3
                                                    VECES

Ciudad

E-2-2-2-2-2-2-2-2-0-3-0-2-2-2-2-2-2-2-2-0-3-0  REPITE 4 VECES
A-4-4-4-4-4-4-4-4-0-5-0-4-4-4-4-4-4-4-4-0-5-0  LUEGO

A-2-2-2-2-2-2-2-2-0-3-0-2-2-2-2-2-2-2-2-0-3-0  REPITE 4 VECES
D-4-4-4-4-4-4-4-4-0-5-0-4-4-4-4-4-4-4-4-0-5-0  Y VUELVE AL
                                               PRIMER RIFF

Estos dos riffs son un ciclo que se repite dos veces

Luego viene el solo que empieza en el traste 14 de la primera
cuerda no lo he podido sacar, pero el que quiera hacerlo
tiene una referencia.

Mientras suene el solo se hace el siguiente riff
E----------------------------
A-4-4-2-4-4-4-2-4?2-4-2-0-2--
D--0-------0-----------------

Luego que se termina el solo se pasa al siguiente arpegio

E-------------------------------3-2--    ESTE ARPEGIO VA 3
A-2--------------0-------------------    VECES Y LUEGO VA
D---4---4----4-----2---2-----2-------    CON DISTORCIÓN
G-----0----0---------4-----4---------    CUANDO GRITAN AFAN
B--------0-----0---------0-----0-----    POR LARGO RATO
e------------------------------------    VUELVE AL SIGUIENTE
                                         RIFF.

E----------------------------
A-4-4-2-4-4-4-2-4?2-4-2-0-2--
D--0-------0-----------------

Vuelve al siguiente riff:

Cayó al olvido y allí?       La vida es ruleta?
A-2---3---2---3---4-2----    A-4-4-4-4-2-2-2-2---------------
D-4---5---4---5-------5-4    D----------------5-5-5-5-4-4-4-4

Fugitivo, fugitivo?

A-2---2--------------------2---2------------------- REPITE
D-4---4----0-0-0-0-0-0-0-0-4---4----0-0-0-0-0-0-0-0 ESTO 4
                                                    VECES

Luego repite:
E----------------------------
A-4-4-2-4-4-4-2-4?2-4-2-0-2--
D--0-------0-----------------

Y termina con:

E----------------
A-2-2-3-2-2-0-2--
G-4-4-5-4-2-0-4--

Como pueden ver es sencillo solo es que escuchen el tema que
está en el álbum Kraken I o en el álbum una leyenda del rock.
Suggest correction
Creating personal tab
Creating personal tab
You can edit any tab online and save it as your Personal.

You can edit, replace or remove any tab part or add personal notes – all changes will be seen only by you.

Personal tabs can be accessed anytime from any device, even offline.
Learn more »
Give kudos to tab author, rate the tab!
1 2 3 4 5
comments
print report bad tab
guest
Wanna post a correction for this tab? Suggest correction