Oops, an error
Loading. Please wait.

Fuer Uns Zu Spaet Tab

7,571 views 9 this week
no commentswrite comment
1 2 3 4 5
1 last vote to show rating
add to favorites
launch autoscroll
font size
0
reset
how to read this tab
guitar tuner
Autoscroll
slow
fast
+/-
esc
set tempo
stop
Help us to improve Ultimate-Guitar.com Take our survey!
×
Author
Difficulty
intermediate
Krawallbrueder - Fuer uns zu spaet


Intro: Clean
e|----------------------------------------------------------0~~|
B|-------------1-------------------1---------------0-----0--0~~|
G|--2~~2---0-2---2---2---------0-----0---0-----0-----0------0~~|
D|--2~~--2---------2---------2---2-----2-----2---2-----2----2~~|
A|--0~~~~~~~~~~~~~~~~~-0-2-3~~~~~~~~~~~~~~-2~~~~~~~~~~~~~~~-2~~|
E|----------------------------------------------------------0~~|


Verse: Clean
e|---------------------------------------------------------------------------------|
B|---------------------------------------------------------------------------------|
G|----2---2---2---2----0---0---0---0--------------------------------2---2---2---2--|
D|---2-2-2-2-2-2-2-2--2-2-2-2-2-2-2-2---5~~----5~~----5~~----5~~---2-2-2-2-2-2-2-2-|
A|--0---0---0---0----3---3---3---3-----5------5------5------5-----0---0---0---0----|
E|------------------------------------3------3------3------3-----------------------|


Pre-Chorus: Clean
e|--1------0-----0-0-0-0-0-0-0-0-0--1------0-----0-0-0-0-0-0-0-0-0--|
B|----3------1---1-1-1-1-1-1-1-1-1----3------1---1-1-1-1-1-1-1-1-1--|
G|------2------2-2-2-2-2-2-2-2-2-2------2------2-2-2-2-2-2-2-2-2-2--|
D|---------------2-2-2-2-2-2-2-2-2---------------2-2-2-2-2-2-2-2-2--|
A|------------------------------------------------------------------|
E|------------------------------------------------------------------|


Chorus: Distortion
e|---------------------------------------------------------------------------------|
B|---------------------------------------------------------------------------------|
G|------------------------------------------------------------------5--------------|
D|--555-333-333~~-3~~-----------0-------3-3~~---------0-------3-3~~-5-5-7~~~-------|
A|--555-333-333~~-3~~-----0-2-3---3-2---3-3~~---0-2-3---3-2---3-3~~-3-5-7~~~-------|
E|--777-555-111~~-1~~---3-------------3-1-1~~-3-------------3-1-1~~---3-5~~~-------| X2


Solo: Distortion
e|-------------------3-------------------3-5~-3-5--8-7-5-8p7p5-8p7p5--------------|
B|--5~~-3~-----5-3-5---5-3-5~~-3---5~~-3-----------------------------5-3--3-------|
G|---------5-5-------------------5---------------------------------------5--5-2~~-|
D|--------------------------------------------------------------------------------|
A|--------------------------------------------------------------------------------|
E|--------------------------------------------------------------------------------|


e|-----------------------------------------------------------------------|
B|------------------------------------5-3-----------------------3-5~-6-5-|
G|--2-4-5-4-2---2~-2-4-5-4-2---2~-2-5-----5-4-5p4h5p4h5p4h5p4h5----------|
D|------------5--------------5-------------------------------------------|
A|-----------------------------------------------------------------------|
E|-----------------------------------------------------------------------|


e|----3-5~~-3~-5-8-7-5-8p7p5-8p7p5-8p7p5-8p7p5-10-8-5-3-----|
B|--3---------------------------------------------------5-3-|
G|----------------------------------------------------------|
D|----------------------------------------------------------|
A|----------------------------------------------------------|
E|----------------------------------------------------------|


Solo 2: Distortion
e|-------------------------------------|
B|-------------------------------------|
G|-------------------------------------|
D|------------2-3-2--------------------|
A|--0-3-3-3-3---------3-2-0-2-3-5\3\2--|
E|------------------3------------------| X2

e|---------------------------------|
B|---------------------------------|
G|---------------------------------|
D|--2-3-2--2-3-2--2-3-2-3-2--------|
A|--------------------------5\3\2--|
E|---------------------------------| X2


Verse 3: Distortion
e|----------------------------------------------------------|
B|----------------------------------------------------------|
G|----------------5-555555-5-5------------------------------|
D|--7-777777-7-7--5-555555-5-5--5-555555-5-5--7-777777-7-7--|
A|--7-777777-7-7--3-333333-3-3--5-555555-5-5--7-777777-7-7--|
E|--5-555555-5-5----------------3-333333-3-3--5-555555-5-5--|
      xxxxxx        xxxxxx        xxxxxx        xxxxxx

Intro 2X
Verse 2X
Pre-Chorus 1X
Chorus 1X
Verse 2X
Pre-Chorus 1X
Chorus 1X
Solo 1X
Pre-Chorus 1X
Chorus 1X
Solo 2 1X
Pre-Chorus 2X
Verse 3 2X
Pre-Chorus 1X
Chorus

Ich habe das Lied leider nirgends finden koennen, deshalb habe ich mal versucht, es 
sind natuerlich immer Willkommen =)
Viel Spass:)

http://www.kbrecords.de/krawallbrueder/
Suggest correction
Give kudos to tab author, rate the tab!
1 2 3 4 5
comments
print report bad tab
guest
You may want to rate the tab now too:
select rating
Wanna post a correction for this tab? Suggest correction