Oops, an error
Loading. Please wait.

Coma Of Souls tab

version 2
version 2

Whole song

Interactive

by Kreator
9,940 views 6 this week
3 commentsread comments
1 2 3 4 5
x 3
add to favorites
×
Save as Personal and add changes to this tab that will be seen only by you. Learn more ›
×
You can save this tab as Personal to edit and correct it or add notes. All changes will be seen only by you. Learn more »
launch autoscroll
font size
0
reset
how to read this tab
guitar tuner
backing track
0:00
0:00
edit
Autoscroll
slow
fast
+/-
esc
set tempo
stop
Author
KreatoR-Coma Of Souls [1990]

                            PM -|       PM             PM          PM           
     W                   E  S  S  E  E  E  E  E  E     E  E  E  E  E  E  E  E   
E||-------------------|-----------------------------|--------------------------|
B||-------------------|-----------------------------|--------------------------|
G||-------------------|-----------------------------|--------------------------|
D||-------------------|--------------------4--3-----|-----5--4-----------6--7--|
A||-------------------|--8--------7--5-----2--1--3--|-----3--2--4-----5--4--5--|
E||-------------------|--6--0--0--5--3--0--------1--|--0--------2--0--3--------|


     PM -|       PM             PN                      
  E  S  S  E  E  E  E  E  E     E  E  E  E  E  E  Q     
-----------------------------|-------------------------|
-----------------------------|-------------------------|
-----------------------------|-------------------------|
--------------------4--3-----|-----------5--7--6-------|
--8--------7--5-----2--1--3--|-----4--5--3--5--4--6----|
--6--0--0--5--3--0--------1--|--0--2--3-----------4----|


     PM -|       PM             PM          PM           
  E  S  S  E  E  E  E  E  E     E  E  E  E  E  E  E  E   
-----------------------------|--------------------------|
-----------------------------|--------------------------|
-----------------------------|--------------------------|
--------------------4--3-----|-----5--4-----------6--7--|
--8--------7--5-----2--1--3--|-----3--2--4-----5--4--5--|
--6--0--0--5--3--0--------1--|--0--------2--0--3--------|


     PM -|       PM             PN                      
  E  S  S  E  E  E  E  E  E     E  E  E  E  E  E  Q     
-----------------------------|-------------------------|
-----------------------------|-------------------------|
-----------------------------|-------------------------|
--------------------4--3-----|-----------5--7--6-------|
--8--------7--5-----2--1--3--|-----4--5--3--5--4--6----|
--6--0--0--5--3--0--------1--|--0--2--3-----------4----|


     PM -|       PM - - - - - - -|       PM -|                   
  E  S  S  E  E  S  S S S S S S S     E  S  S  E  E  E  E  Q     
-----------------------------------|----------------------------|
-----------------------------------|----------------------------|
-----------------------------------|----------------------------|
-----------------------------------|-----------------7--6-------|
--8--------7--5--------------------|--8--------7--5--5--4--6----|
--6--0--0--5--3--0--0-0-0-0-0-0-0--|--6--0--0--5--3--------4----|


     PM -|       PM - - - - - - -|       PM -|                   
  E  S  S  E  E  S  S S S S S S S     E  S  S  E  E  E  E  Q     
-----------------------------------|----------------------------|
-----------------------------------|----------------------------|
-----------------------------------|----------------------------|
-----------------------------------|-----------------7--6-------|
--8--------7--5--------------------|--8--------7--5--5--4--6----|
--6--0--0--5--3--0--0-0-0-0-0-0-0--|--6--0--0--5--3--------4----|


     PM -|       PM - - - - - - -|       PM -|                   
  E  S  S  E  E  S  S S S S S S S     E  S  S  E  E  E  E  Q     
-----------------------------------|----------------------------|
-----------------------------------|----------------------------|
-----------------------------------|----------------------------|
-----------------------------------|-----------------7--6-------|
--8--------7--5--------------------|--8--------7--5--5--4--6----|
--6--0--0--5--3--0--0-0-0-0-0-0-0--|--6--0--0--5--3--------4----|


     PM -|       PM - - - - - - -|       PM -|                   
  E  S  S  E  E  S  S S S S S S S     E  S  S  E  E  E  E  Q     
-----------------------------------|----------------------------|
-----------------------------------|----------------------------|
-----------------------------------|----------------------------|
-----------------------------------|-----------------7--6-------|
--8--------7--5--------------------|--8--------7--5--5--4--6----|
--6--0--0--5--3--0--0-0-0-0-0-0-0--|--6--0--0--5--3--------4----|


     PM -|       PM - - - - - - -|       PM -|                   
  E  S  S  E  E  S  S S S S S S S     E  S  S  E  E  E  E  Q     
-----------------------------------|----------------------------|
-----------------------------------|----------------------------|
-----------------------------------|----------------------------|
-----------------------------------|-----------------7--6-------|
--8--------7--5--------------------|--8--------7--5--5--4--6----|
--6--0--0--5--3--0--0-0-0-0-0-0-0--|--6--0--0--5--3--------4----|


     PM -|       PM - - - - - - -|       PM -|                   
  E  S  S  E  E  S  S S S S S S S     E  S  S  E  E  E  E  Q     
-----------------------------------|----------------------------|
-----------------------------------|----------------------------|
-----------------------------------|----------------------------|
-----------------------------------|-----------------7--6-------|
--8--------7--5--------------------|--8--------7--5--5--4--6----|
--6--0--0--5--3--0--0-0-0-0-0-0-0--|--6--0--0--5--3--------4----|


       PM         PM              PM                       PM         PM      
  Q    E  E  Q    E   E      Q    E  E   Q    Q       Q    E  E  Q    E   E   
-------------------------|-------------------------|-------------------------|
-------------------------|-------------------------|-------------------------|
-------------------------|-------------------------|-------------------------|
--9-------7--7-----------|--------------------8----|--9-------7--7-----------|
--7-------5--5-------10--|--10-------9--10----6----|--7-------5--5-------10--|
-------0----------0---8--|---8----0--7---8---------|-------0----------0---8--|


        PM                        PM         PM              PM                
   Q    E  E   Q     Q       Q    E  E  Q    E   E      Q    E  E   Q    Q     
--------------------------|-------------------------|-------------------------|
--------------------------|-------------------------|-------------------------|
--------------------------|-------------------------|-------------------------|
--------------------10----|--9-------7--7-----------|--------------------8----|
--10-------9--10-----8----|--7-------5--5-------10--|--10-------9--10----6----|
---8----0--7---8----------|-------0----------0---8--|---8----0--7---8---------|


       PM         PM              PM                      PM         PM      
  Q    E  E  Q    E   E      Q    E  E  Q    Q       Q    E  E  Q    E   E   
-------------------------|------------------------|-------------------------|
-------------------------|------------------------|-------------------------|
-------------------------|------------------------|-------------------------|
--9-------7--7-----------|-----------4--5---------|--9-------7--7-----------|
--7-------5--5-------10--|--10-------2--3----3----|--7-------5--5-------10--|
-------0----------0---8--|---8----0----------1----|-------0----------0---8--|


        PM                       PM         PM              PM                 
   Q    E  E   Q    Q       Q    E  E  Q    E   E      Q    E  E   Q     Q     
-------------------------|-------------------------|--------------------------|
-------------------------|-------------------------|--------------------------|
-------------------------|-------------------------|--------------------------|
--------------------8----|--9-------7--7-----------|--------------------10----|
--10-------9--10----6----|--7-------5--5-------10--|--10-------9--10-----8----|
---8----0--7---8---------|-------0----------0---8--|---8----0--7---8----------|


       PM         PM              PM                       PM         PM      
  Q    E  E  Q    E   E      Q    E  E   Q    Q       Q    E  E  Q    E   E   
-------------------------|-------------------------|-------------------------|
-------------------------|-------------------------|-------------------------|
-------------------------|-------------------------|-------------------------|
--9-------7--7-----------|--------------------8----|--9-------7--7-----------|
--7-------5--5-------10--|--10-------9--10----6----|--7-------5--5-------10--|
-------0----------0---8--|---8----0--7---8---------|-------0----------0---8--|


        PM                   PM - - - - -|       PM - - - - -|  
   Q    E  E  Q    Q         S  S S S S S  E  E  S  S S S S S   
------------------------||-------------------------------------|
------------------------||-------------------------------------|
------------------------||*------------------------------------|
-----------4--5---------||*----------------5--5----------------|
--10-------2--3----3----||-----------------3--3----------------|
---8----0----------1----||---0--0-0-0-0-0--------0--0-0-0-0-0--|


       PM - - -|                        PM - - -|               
    E  S  S S S  E  Q    Q           E  S  S S S  E  Q    Q     
-------------------------------||------------------------------|
-------------------------------||------------------------------|
------------------------------*||------------------------------|
--4g5------------4--5---------*||--4g5------------4--5---------|
--2g3------------2--3----3-----||--2g3------------2--3----3----|
-------0--0-0-0----------1-----||-------0--0-0-0----------1----|


  Masters       of       war.                                               
  S       S S S S  S E   E    S S S S E      E  S S S S S S S S S S E   E   
------------------------------------------|--------------------------------|
------------------------------------------|--------------------------------|
------------------------------------------|--------------------------------|
------------------------------------------|--------------------------------|
---------------------3h--5------------2h--|--3-----------------------------|
--0-------0-0-0-0--0----------0-0-0-0-----|-----0-0-0-0-0-0-0-0-0-0-2h--3--|


  Merchants           of  false              
  S         S S S S S E   E     S S S S E    
--------------------------------------------|
--------------------------------------------|
--------------------------------------------|
--------------------------------------------|
----------------------3h--5-------------2h--|
--0---------0-0-0-0-0-----------0-0-0-0-----|


  peace.                             
  E      S S S S S S S S S S E   E   
------------------------------------|
------------------------------------|
------------------------------------|
------------------------------------|
--3------3-3-3-3-3-3-3-3-3-3--------|
-----------------------------3p--2--|


  Bleeding           the lives     of   the  
  S        S S S S S E   E     S S S  S E    
--------------------------------------------|
--------------------------------------------|
--------------------------------------------|
--------------------------------------------|
---------------------3h--5--------------2h--|
--0--------0-0-0-0-0-----------0-0-0--0-----|


  lost.                             
  E     S S S S S S S S S S E   E   
-----------------------------------|
-----------------------------------|
-----------------------------------|
-----------------------------------|
--3--------------------------------|
--------0-0-0-0-0-0-0-0-0-0-2h--3--|


  Feeding           them terminal         di     -  
  S       S S S S S E    E        S S S S E         
---------------------------------------------------|
---------------------------------------------------|
---------------------------------------------------|
---------------------------------------------------|
--------------------3h---5----------------2h-------|
--0-------0-0-0-0-0---------------0-0-0-0----------|


  sease.                             
  E      S S S S S S S S S S E   E   
------------------------------------|
------------------------------------|
------------------------------------|
------------------------------------|
--3------3-3-3-3-3-3-3-3-3-3--------|
-----------------------------3p--2--|


  Breaking       the   rules.                                              No  
  S        S S S S   S E      E  S S S S E      E  S S S S S S S S S S E   E   
---------------------------------------------|--------------------------------|
---------------------------------------------|--------------------------------|
---------------------------------------------|--------------------------------|
---------------------------------------------|--------------------------------|
-----------------------3h-----5----------2h--|--3-----------------------------|
--0--------0-0-0-0---0-----------0-0-0-0-----|-----0-0-0-0-0-0-0-0-0-0-2h--3--|


  matter               who     gets          hurt.                             
  S      S S S S S E   E   S S S    S E      E     S S S S S S S S S S E   E   
------------------------------------------|-----------------------------------|
------------------------------------------|-----------------------------------|
------------------------------------------|-----------------------------------|
------------------------------------------|-----------------------------------|
-------------------3h--5--------------2h--|--3-----3-3-3-3-3-3-3-3-3-3--------|
--0------0-0-0-0-0---------0-0-0----0-----|----------------------------3p--2--|


  Whole     - saling       use   -   less        
  S     S S S S      S E   E   S   S S    S E    
------------------------------------------------|
------------------------------------------------|
------------------------------------------------|
------------------------------------------------|
-----------------------3h--5----------------2h--|
--0-----0-0-0-0------0---------0---0-0----0-----|


  trash.                             
  E      S S S S S S S S S S E   E   
------------------------------------|
------------------------------------|
------------------------------------|
------------------------------------|
--3---------------------------------|
---------0-0-0-0-0-0-0-0-0-0-2h--3--|


  Charging               twice     what   it's  
  S        S S S S S E   E     S S S    S E     
-----------------------------------------------|
-----------------------------------------------|
-----------------------------------------------|
-----------------------------------------------|
---------------------3h--5----------------2h---|
--0--------0-0-0-0-0-----------0-0-0----0------|


  worth.                               Freedom       of thought    a  mi   -  
  E      S S S S S S S S S S E   E     E       E  E  E  E       E  E  E       
------------------------------------|----------------------------------------|
------------------------------------|----------------------------------------|
------------------------------------|----------------------------------------|
------------------------------------|----------------------------------------|
--3------3-3-3-3-3-3-3-3-3-3--------|--6------------------------6------------|
-----------------------------3p--2--|--4-------4--4--4--4-------L--4--4------|


  rage.                   The    coma       is endless       and  
  E     E  E  E  E  E  E  E      E    E  E  E  E       E  E  E    
------------------------------|----------------------------------|
------------------------------|----------------------------------|
------------------------------|----------------------------------|
--3--------------3------------|----------------------------------|
--1-----1--1--1--1--1--1--1---|--6---------------------6---------|
------------------------------|--4----4--4--4--4-------L--4--4---|


  deep.                         Feeling       so worldly       and  
  E     E  E  E  E  E  E  E     E       E  E  E  E       E  E  E    
-----------------------------|-------------------------------------|
-----------------------------|-------------------------------------|
-----------------------------|-------------------------------------|
--5--------------5-----------|--3------------------------1---------|
--3-----3--3--3--3--3--3--3--|--1-------1--1--1--1-------L--1--1---|
-----------------------------|-------------------------------------|


  wise.                         Fooled    by the friends    that  we  
  E     E  E  E  E  E  E  E     E      E  E  E   E       E  E    E    
-----------------------------|---------------------------------------|
-----------------------------|---------------------------------------|
-----------------------------|---------------------------------------|
--5--------------5-----------|--3------------------------1-----------|
--3-----3--3--3--3--3--3--3--|--1------1--1--1---1-------L--1----1---|
-----------------------------|---------------------------------------|


  keep.                           Spirit     on       ice.              
  E     S S S S S S E  E  Q       E      S S S  S S S E    S S S S S S  
-------------------------------|---------------------------------------|
-------------------------------|---------------------------------------|
-------------------------------|---------------------------------------|
-------------------------------|---------------------------------------|
--4--------------------3-------|--2-------------------2----------------|
--2-----2-2-2-2-2-2-2--L--2----|--0------0-0-0--0-0-0-0----0-0-0-0-0-0-|


                             They'll    never    be    free.     
  E  S S S S S S E  E  Q                E     E  E  E  H         
-------------------------------------|--------------------------|
-------------------------------------|--------------------------|
-------------------------------------|--------------------------|
-------------------------------------|--5-----5--4-----4--------|
--4-----------------3----------------|--3-----3--2--0--2--------|
--2--2-2-2-2-2-2-2--L--2-------------|--------------------------|


  One     -   dimensional               
  E   S S S S S           S E  E  Q     
---------------------------------------|
---------------------------------------|
---------------------------------------|
---------------------------------------|
--4----------------------------3-------|
--2---2-2-2-2-2-----------2-2--L--2----|


  lives.                    Will   the      coma     of       souls          
  E      S S S S S S E  S S S    S S   S    E    S S S  S S S E     E  Q     
-----------------------------------------|----------------------------------|
-----------------------------------------|----------------------------------|
-----------------------------------------|----------------------------------|
-----------------------------------------|----------------------------------|
--2------------------2-------------------|--4-----------------------3-------|
--0------0-0-0-0-0-0-0--0-0-0----0-0---0-|--2----2-2-2--2-2-2-2-----L--2----|


  out - live e  - ter  - ni     -    ty.  PM         PM      
  |-----3----|                                               
  Q     Q    Q    Q      Q           Q    E  E  Q    E   E   
----------------------------------|-------------------------|
----------------------------------|-------------------------|
----------------------------------|-------------------------|
--5-----4---------4------8--------|--9-------7--7-----------|
--3-----2----0----2------6--------|--7-------5--5-------10--|
----------------------------------|-------0----------0---8--|


        PM                       PM         PM              PM                 
   Q    E  E   Q    Q       Q    E  E  Q    E   E      Q    E  E   Q     Q     
-------------------------|-------------------------|--------------------------|
-------------------------|-------------------------|--------------------------|
-------------------------|-------------------------|--------------------------|
--------------------8----|--9-------7--7-----------|--------------------10----|
--10-------9--10----6----|--7-------5--5-------10--|--10-------9--10-----8----|
---8----0--7---8---------|-------0----------0---8--|---8----0--7---8----------|


       PM         PM              PM                       PM         PM      
  Q    E  E  Q    E   E      Q    E  E   Q    Q       Q    E  E  Q    E   E   
-------------------------|-------------------------|-------------------------|
-------------------------|-------------------------|-------------------------|
-------------------------|-------------------------|-------------------------|
--9-------7--7-----------|--------------------8----|--9-------7--7-----------|
--7-------5--5-------10--|--10-------9--10----6----|--7-------5--5-------10--|
-------0----------0---8--|---8----0--7---8---------|-------0----------0---8--|


        PM                      PM         PM              PM                
   Q    E  E  Q    Q       Q    E  E  Q    E   E      Q    E  E   Q    Q     
------------------------|-------------------------|-------------------------|
------------------------|-------------------------|-------------------------|
------------------------|-------------------------|-------------------------|
-----------4--5---------|--9-------7--7-----------|--------------------8----|
--10-------2--3----3----|--7-------5--5-------10--|--10-------9--10----6----|
---8----0----------1----|-------0----------0---8--|---8----0--7---8---------|


       PM         PM              PM                        PM         PM      
  Q    E  E  Q    E   E      Q    E  E   Q     Q       Q    E  E  Q    E   E   
-------------------------|--------------------------|-------------------------|
-------------------------|--------------------------|-------------------------|
-------------------------|--------------------------|-------------------------|
--9-------7--7-----------|--------------------10----|--9-------7--7-----------|
--7-------5--5-------10--|--10-------9--10-----8----|--7-------5--5-------10--|
-------0----------0---8--|---8----0--7---8----------|-------0----------0---8--|


        PM                       PM         PM              PM               
   Q    E  E   Q    Q       Q    E  E  Q    E   E      Q    E  E  Q    Q     
-------------------------|-------------------------|------------------------|
-------------------------|-------------------------|------------------------|
-------------------------|-------------------------|------------------------|
--------------------8----|--9-------7--7-----------|-----------4--5---------|
--10-------9--10----6----|--7-------5--5-------10--|--10-------2--3----3----|
---8----0--7---8---------|-------0----------0---8--|---8----0----------1----|


  PM - - - - -|        PM - - -|           PM - - - - - - - - -|         
  S  S S S S S  E   E  S  S S S  E      E  S  S S S S S S S S S  E   E   
-------------------------------------|----------------------------------|
-------------------------------------|----------------------------------|
-------------------------------------|----------------------------------|
-------------------------------------|----------------------------------|
----------------3h--5------------2h--|--3-------------------------------|
--0--0-0-0-0-0---------0--0-0-0------|-----0--0-0-0-0-0-0-0-0-0--2h--3--|


  PM - - - - -|        PM - - -|           PM - - - - -|             
  S  S S S S S  E   E  S  S S S  E      E  S  S S S S S  E  E  Q     
-------------------------------------|------------------------------|
-------------------------------------|------------------------------|
-------------------------------------|------------------------------|
-------------------------------------|-------------------5----------|
----------------3h--5------------2h--|--3--3--3-3-3-3-3--3--5--4----|
--0--0-0-0-0-0---------0--0-0-0------|----------------------3--2----|


  Children       are       pawns.              
  S        S S S S   S E   E      S S S S E    
----------------------------------------------|
----------------------------------------------|
----------------------------------------------|
----------------------------------------------|
-----------------------3h--5--------------2h--|
--0--------0-0-0-0---0------------0-0-0-0-----|


                             For    generals           to  play     with   and  
  E  S S S S S S S S S S E   E      S        S S S S S E   E    S S S    S E    
---------------------------------|---------------------------------------------|
---------------------------------|---------------------------------------------|
---------------------------------|---------------------------------------------|
---------------------------------|---------------------------------------------|
--3------------------------------|---------------------3h--5---------------2h--|
-----0-0-0-0-0-0-0-0-0-0-2h--3---|--0--------0-0-0-0-0----------0-0-0----0-----|


  kill.                               Mercy           will never     be        
  E     S S S S S S S S S S E   E     S     S S S S S E    E     S S S  S E    
-----------------------------------|------------------------------------------|
-----------------------------------|------------------------------------------|
-----------------------------------|------------------------------------------|
-----------------------------------|------------------------------------------|
--3-----3-3-3-3-3-3-3-3-3-3--------|------------------3h---5--------------2h--|
----------------------------3p--2--|--0-----0-0-0-0-0------------0-0-0--0-----|


  found.                         Where  
  E      S S S S S S S S S S E   E      
---------------------------------------|
---------------------------------------|
---------------------------------------|
---------------------------------------|
--3------------------------------------|
---------0-0-0-0-0-0-0-0-0-0-2h--3-----|


  mayhem           is  done     for   the  
  S      S S S S S E   E    S S S   S E    
------------------------------------------|
------------------------------------------|
------------------------------------------|
------------------------------------------|
-------------------3h--5--------------2h--|
--0------0-0-0-0-0----------0-0-0---0-----|


  thrill.                             
  E       S S S S S S S S S S E   E   
-------------------------------------|
-------------------------------------|
-------------------------------------|
-------------------------------------|
--3-------3-3-3-3-3-3-3-3-3-3--------|
------------------------------3p--2--|


  Righteous           crusades.                 
  S         S S S S S E         E  S S S S E    
-----------------------------------------------|
-----------------------------------------------|
-----------------------------------------------|
-----------------------------------------------|
----------------------3h--------5----------2h--|
--0---------0-0-0-0-0--------------0-0-0-0-----|


                                   Murder           to  honor     a        
  E  S S S S S S S S S S E   E     S      S S S S S E   E     S S S S E    
--------------------------------|-----------------------------------------|
--------------------------------|-----------------------------------------|
--------------------------------|-----------------------------------------|
--------------------------------|-----------------------------------------|
--3-----------------------------|-------------------3h--5-------------2h--|
-----0-0-0-0-0-0-0-0-0-0-2h--3--|--0------0-0-0-0-0-----------0-0-0-0-----|


  god.                               No   one   is       saved.              
  E    S S S S S S S S S S E   E     S  S S   S S  S E   E      S S S S E    
----------------------------------|-----------------------------------------|
----------------------------------|-----------------------------------------|
----------------------------------|-----------------------------------------|
----------------------------------|-----------------------------------------|
--3----3-3-3-3-3-3-3-3-3-3--------|------------------3h--5--------------2h--|
---------------------------3p--2--|--0--0-0---0-0--0------------0-0-0-0-----|


  E  S S S S S S S S S S E   E   
--------------------------------|
--------------------------------|
--------------------------------|
--------------------------------|
--3-----------------------------|
-----0-0-0-0-0-0-0-0-0-0-2h--3--|


  Dead       bodies       shrivel     and        
  S    S S S S      S E   E       S S S   S E    
------------------------------------------------|
------------------------------------------------|
------------------------------------------------|
------------------------------------------------|
----------------------3h--5-----------------2h--|
--0----0-0-0-0------0-------------0-0-0---0-----|


  rot                               Freedom       of thought    a  mi   -  
  E   S S S S S S S S S S E   E     E       E  E  E  E       E  E  E       
---------------------------------|----------------------------------------|
---------------------------------|----------------------------------------|
---------------------------------|----------------------------------------|
---------------------------------|----------------------------------------|
--3---3-3-3-3-3-3-3-3-3-3--------|--6------------------------6------------|
--------------------------3p--2--|--4-------4--4--4--4-------L--4--4------|


  rage.                   The    coma       is endless       and  
  E     E  E  E  E  E  E  E      E    E  E  E  E       E  E  E    
------------------------------|----------------------------------|
------------------------------|----------------------------------|
------------------------------|----------------------------------|
--3--------------3------------|----------------------------------|
--1-----1--1--1--1--1--1--1---|--6---------------------6---------|
------------------------------|--4----4--4--4--4-------L--4--4---|


  deep.                         Feeling       so worldly       and  
  E     E  E  E  E  E  E  E     E       E  E  E  E       E  E  E    
-----------------------------|-------------------------------------|
-----------------------------|-------------------------------------|
-----------------------------|-------------------------------------|
--5--------------5-----------|--3------------------------1---------|
--3-----3--3--3--3--3--3--3--|--1-------1--1--1--1-------L--1--1---|
-----------------------------|-------------------------------------|


  wise.                         Fooled    by the friends    that  we  
  E     E  E  E  E  E  E  E     E      E  E  E   E       E  E    E    
-----------------------------|---------------------------------------|
-----------------------------|---------------------------------------|
-----------------------------|---------------------------------------|
--5--------------5-----------|--3------------------------1-----------|
--3-----3--3--3--3--3--3--3--|--1------1--1--1---1-------L--1----1---|
-----------------------------|---------------------------------------|


  keep.                           Spirit     on       ice.              
  E     S S S S S S E  E  Q       E      S S S  S S S E    S S S S S S  
-------------------------------|---------------------------------------|
-------------------------------|---------------------------------------|
-------------------------------|---------------------------------------|
-------------------------------|---------------------------------------|
--4--------------------3-------|--2-------------------2----------------|
--2-----2-2-2-2-2-2-2--L--2----|--0------0-0-0--0-0-0-0----0-0-0-0-0-0-|


                             They'll    never    be    free.     
  E  S S S S S S E  E  Q                E     E  E  E  H         
-------------------------------------|--------------------------|
-------------------------------------|--------------------------|
-------------------------------------|--------------------------|
-------------------------------------|--5-----5--4-----4--------|
--4-----------------3----------------|--3-----3--2--0--2--------|
--2--2-2-2-2-2-2-2--L--2-------------|--------------------------|


  One     -   dimensional               
  E   S S S S S           S E  E  Q     
---------------------------------------|
---------------------------------------|
---------------------------------------|
---------------------------------------|
--4----------------------------3-------|
--2---2-2-2-2-2-----------2-2--L--2----|


  lives.                    Will   the      coma     of       souls          
  E      S S S S S S E  S S S    S S   S    E    S S S  S S S E     E  Q     
-----------------------------------------|----------------------------------|
-----------------------------------------|----------------------------------|
-----------------------------------------|----------------------------------|
-----------------------------------------|----------------------------------|
--2------------------2-------------------|--4-----------------------3-------|
--0------0-0-0-0-0-0-0--0-0-0----0-0---0-|--2----2-2-2--2-2-2-2-----L--2----|


  out - live e  - ter  - ni     -    ty. PM - - - - -|    PM - - - - -|  
  |-----3----|                                                           
  Q     Q    Q    Q      Q           E   S  S S S S S  E  S  S S S S S   
----------------------------------|-------------------------------------|
----------------------------------|-------------------------------------|
----------------------------------|-------------------------------------|
--5-----4---------4------8--------|--9-----------------9----------------|
--3-----2----0----2------6--------|--7-----------------7----------------|
----------------------------------|------0--0-0-0-0-0-----0--0-0-0-0-0--|


     PM - - - - -|                    PM - - - - -|     PM - - - - -|  
  E  S  S S S S S  E   E  Q        E  S  S S S S S   E  S  S S S S S   
-------------------------------|--------------------------------------|
-------------------------------|--------------------------------------|
-------------------------------|--------------------------------------|
--9----------------9-----------|--10----------------10----------------|
--7----------------7--10--9----|---8--8--8-8-8-8-8---8--8--8-8-8-8-8--|
-----0--0-0-0-0-0------8--7----|--------------------------------------|


      PM - - - - -|                    PM - - - - -|    PM - - - - -|  
   E  S  S S S S S   E   E  Q       E  S  S S S S S  E  S  S S S S S   
---------------------------------|------------------------------------|
---------------------------------|------------------------------------|
---------------------------------|------------------------------------|
--10----------------12--10--9----|--9----------------9----------------|
---8--8--8-8-8-8-8--10---8--7----|--7----------------7----------------|
---------------------------------|-----0--0-0-0-0-0-----0--0-0-0-0-0--|


     PM - - - - -|                    PM - - - - -|     PM - - - - -|  
  E  S  S S S S S  E   E  Q        E  S  S S S S S   E  S  S S S S S   
-------------------------------|--------------------------------------|
-------------------------------|--------------------------------------|
-------------------------------|--------------------------------------|
--9----------------9-----------|--10----------------10----------------|
--7----------------7--10--9----|---8--8--8-8-8-8-8---8--8--8-8-8-8-8--|
-----0--0-0-0-0-0------8--7----|--------------------------------------|


      PM - - - - -|                    PM - - - - -|    PM - - - - -|  
   E  S  S S S S S   E   E  Q       E  S  S S S S S  E  S  S S S S S   
---------------------------------|------------------------------------|
---------------------------------|------------------------------------|
---------------------------------|------------------------------------|
--10----------------12--10--9----|--7----------------7----------------|
---8--8--8-8-8-8-8--10---8--7----|--5--5--5-5-5-5-5--5--5--5-5-5-5-5--|
---------------------------------|------------------------------------|


     PM - - - - -|                  PM - - - - -|    PM - - - - -|  
  E  S  S S S S S  E  E  Q       E  S  S S S S S  E  S  S S S S S   
------------------------------|------------------------------------|
------------------------------|------------------------------------|
------------------------------|------------------------------------|
--7----------------7----------|--8----------------8----------------|
--5--5--5-5-5-5-5--5--8--7----|--6--6--6-6-6-6-6--6--6--6-6-6-6-6--|
----------------------6--5----|------------------------------------|


     PM - - - - -|                   PM - - - - -|    PM - - - - -|  
  E  S  S S S S S   E  E  Q       E  S  S S S S S  E  S  S S S S S   
-------------------------------|------------------------------------|
-------------------------------|------------------------------------|
-------------------------------|------------------------------------|
--8----------------10--8--7----|--7----------------7----------------|
--6--6--6-6-6-6-6---8--6--5----|--5--5--5-5-5-5-5--5--5--5-5-5-5-5--|
-------------------------------|------------------------------------|


     PM - - - - -|                  PM - - - - -|    PM - - - - -|  
  E  S  S S S S S  E  E  Q       E  S  S S S S S  E  S  S S S S S   
------------------------------|------------------------------------|
------------------------------|------------------------------------|
------------------------------|------------------------------------|
--7----------------7----------|--8----------------8----------------|
--5--5--5-5-5-5-5--5--8--7----|--6--6--6-6-6-6-6--6--6--6-6-6-6-6--|
----------------------6--5----|------------------------------------|


     PM - - - - -|                                                             
  E  S  S S S S S   E  E  Q          W                       W                 
-------------------------------|----------------------|-----------------------|
-------------------------------|--xg13----------------|--13g15----------------|
-------------------------------|----------------------|-----------------------|
--8----------------10--8--7----|----------------------|-----------------------|
--6--6--6-6-6-6-6---8--6--5----|----------------------|-----------------------|
-------------------------------|----------------------|-----------------------|


   Q     Q     Q     Q           W                 
--12----14----12----------|-----------------------|
--------------------15----|--15g17----------------|
--------------------------|-----------------------|
--------------------------|-----------------------|
--------------------------|-----------------------|
--------------------------|-----------------------|


   |---3---|   |---3---|   |---3---|   |---3---|   
   E   E   E   E   E   E   E   E   E   E   E   E   
--19--19--19--19--19--19--19--19--19--17--17--17--|
--------------------------------------------------|
--------------------------------------------------|
--------------------------------------------------|
--------------------------------------------------|
--------------------------------------------------|


   |---3---|   |---3---|   |---3---|   |---3---|   
   E   E   E   E   E   E   E   E   E   E   E   E   
--15--15--15--15--15--15--15--15--15--------------|
--------------------------------------19--19--19--|
--------------------------------------------------|
--------------------------------------------------|
--------------------------------------------------|
--------------------------------------------------|


   |---3---|   |---3---|   |---3---|   |---3---|   
   E   E   E   E   E   E   E   E   E   E   E   E   
--15--15--15--17--17--17--15--15--15--------------|
--------------------------------------19--19--19--|
--------------------------------------------------|
--------------------------------------------------|
--------------------------------------------------|
--------------------------------------------------|


   |---3---|   |---3---|   |---3---|   |---3---|   
   E   E   E   E   E   E   E   E   E   E   E   E   
--------------------------15--15--15------15--19--|
--17--17--17--19--19--19--------------17----------|
--------------------------------------------------|
--------------------------------------------------|
--------------------------------------------------|
--------------------------------------------------|


   |----3----|   |----3----|   |----3----|   |----3----|   
   E    E    E   E    E    E   E    E    E   E    E    E   
--22p--20p--19--22p--20p--19--22p--20p--19--22p--20p--19--|
----------------------------------------------------------|
----------------------------------------------------------|
----------------------------------------------------------|
----------------------------------------------------------|
----------------------------------------------------------|


   |----3----|   |----3----|   |----3----|   |----3----|   
   E    E    E   E    E    E   E    E    E   E    E    E   
--22p--20p--19--22p--20p--19--22p--20p--19--22p--20p--19--|
----------------------------------------------------------|
----------------------------------------------------------|
----------------------------------------------------------|
----------------------------------------------------------|
----------------------------------------------------------|


   |----3----|   |----3----|   |----3----|   |----3----|   
   E    E    E   E    E    E   E    E    E   E    E    E   
--22p--20p--19----------------22p--20p--19----------------|
----------------22p--20p--19----------------22p--20p--19--|
----------------------------------------------------------|
----------------------------------------------------------|
----------------------------------------------------------|
----------------------------------------------------------|


   |----3----|   |----3----|              
   E    E    E   E    E    E   H          
--22p--20p--19---------------------------|
----------------22p--20p--19--22b--------|
-----------------------------------------|
-----------------------------------------|
-----------------------------------------|
-----------------------------------------|


   T           T           T           T           
   |---3---|   |---3---|   |---3---|   |---3---|   
   E   E   E   E   E   E   E   E   E   E   E   E   
--------------------------------------------------|
--------------------------------------------------|
--12p--9p--5--12p--9p--5--12p--9p--5--12p--9p--5--|
--------------------------------------------------|
--------------------------------------------------|
--------------------------------------------------|


   T            T            T            T            
   |----3---|   |----3---|   |----3---|   |----3---|   
   E    E   E   E    E   E   E    E   E   E    E   E   
------------------------------------------------------|
------------------------------------------------------|
--14p--11p--7--14p--11p--7--14p--11p--7--14p--11p--7--|
------------------------------------------------------|
------------------------------------------------------|
------------------------------------------------------|


   T            T            T            T            
   |----3---|   |----3---|   |----3---|   |----3---|   
   E    E   E   E    E   E   E    E   E   E    E   E   
------------------------------------------------------|
------------------------------------------------------|
--16p--12p--9--16p--12p--9--16p--12p--9--16p--12p--9--|
------------------------------------------------------|
------------------------------------------------------|
------------------------------------------------------|


                               Deep       in       the       un    -   
   T                                                                   
                               |---3---|  |--3--|  |---3--|  |--3--|   
   Q      Q        H           E    E  E  E  E  E  E   E  E  E  E  E   
----------------------------|-----------------------------------------|
---------------15g19--------|-----------------------------------------|
--16p----14-----------------|-----------------------------------------|
----------------------------|-----------------------------------------|
----------------------------|--2-------------------5------------------|
----------------------------|--0----0--0--0--0--0--3---3--3--3--3--3--|


  conscious             mind.                    
  |------3-----|  |--3--|     |--3--|  |--3--|   
  E         E  E  E  E  E     E  E  E  E  E  E   
------------------------------------------------|
------------------------------------------------|
------------------------------------------------|
--6---------------------------------------------|
--4---------4--4--4--4--4-----7--------8--------|
------------------------------5--5--5--6--6--6--|


  Lies             the oldest                 
  |---3---|  |--3--|   |----3----|  |--3--|   
  E    E  E  E  E  E   E      E  E  E  E  E   
---------------------------------------------|
---------------------------------------------|
---------------------------------------------|
---------------------------------------------|
--2--------------------5---------------------|
--0----0--0--0--0--0---3------3--3--3--3--3--|


  wisdom.                                   
  |-----3----|  |--3--|  |--3--|  |--3--|   
  E       E  E  E  E  E  E  E  E  E  E  E   
-------------------------------------------|
-------------------------------------------|
-------------------------------------------|
--3-------2--0-----------------------------|
----------------3--2--0--------------------|
-------------------------3--5--3--1--3--1--|


  Bu    -  ried       by                 
  |--3--|  |---3---|  |--3--|  |--3--|   
  E  E  E  E    E  E  E  E  E  E  E  E   
----------------------------------------|
----------------------------------------|
----------------------------------------|
----------------------------------------|
--2-------------------5-----------------|
--0--0--0--0----0--0--3--3--3--3--3--3--|


           centuries.                      Of  
  |--3--|  |------3------|  |--3--|  |--3--|   
  E  E  E  E          E  E  E  E  E  E  E  E   
----------------------------------------------|
----------------------------------------------|
----------------------------------------------|
--6-------------------------------------------|
--4--4--4--4----------4--4--7--------8--------|
----------------------------5--5--5--6--6--6--|


  war             and  in       -     qui     -  
  |---3--|  |--3--|   |---3--|  |--3--|          
  E   E  E  E  E  E   E   E  E  E  E  E          
------------------------------------------------|
------------------------------------------------|
------------------------------------------------|
------------------------------------------------|
--2-------------------5-------------------------|
--0---0--0--0--0--0---3---3--3--3--3--3---------|


  sition.                                   
  |-----3----|  |--3--|  |--3--|  |--3--|   
  E       E  E  E  E  E  E  E  E  E  E  E   
-------------------------------------------|
-------------------------------------------|
-------------------------------------------|
--3-------2--0-----------------------------|
----------------3--2--0--------------------|
-------------------------3--5--3--1--3--1--|


  Truth       is       raped       and        
  |----3---|  |--3--|  |----3---|  |---3--|   
  E     E  E  E  E  E  E     E  E  E   E  E   
---------------------------------------------|
---------------------------------------------|
---------------------------------------------|
---------------------------------------------|
--2--------------------5---------------------|
--0-----0--0--0--0--0--3-----3--3--3---3--3--|


           crucified.                      By  
  |--3--|  |------3------|  |--3--|  |--3--|   
  E  E  E  E          E  E  E  E  E  E  E  E   
----------------------------------------------|
----------------------------------------------|
----------------------------------------------|
--6-------------------------------------------|
--4--4--4--4----------4--4--7--------8--------|
----------------------------5--5--5--6--6--6--|


  men             with  savage                 
  |---3--|  |--3--|    |-----3----|  |--3--|   
  E   E  E  E  E  E    E       E  E  E  E  E   
----------------------------------------------|
----------------------------------------------|
----------------------------------------------|
----------------------------------------------|
--2--------------------5----------------------|
--0---0--0--0--0--0----3-------3--3--3--3--3--|


  brains.                               And  
  |-----3----|  |--3--|  |--3--|  |--3--|    
  E       E  E  E  E  E  E  E  E  E  E  E    
--------------------------------------------|
--------------------------------------------|
--------------------------------------------|
--3-------2--0------------------------------|
----------------3--2--0---------------------|
-------------------------3--5--3--1--3--1---|


  greed       flows       forth       in        
  |----3---|  |----3---|  |----3---|  |--3--|   
  E     E  E  E     E  E  E     E  E  E  E  E   
-----------------------------------------------|
-----------------------------------------------|
-----------------------------------------------|
-----------------------------------------------|
--2-----------------------5--------------------|
--0-----0--0--0-----0--0--3-----3--3--3--3--3--|


           endless       waves.             From  
  |--3--|  |-----3----|  |----3----|  |--3--|     
  E  E  E  E       E  E  E      E  E  E  E  E     
-------------------------------------------------|
-------------------------------------------------|
-------------------------------------------------|
--6----------------------------------------------|
--4--4--4--4-------4--4--7------------8----------|
-------------------------5------5--5--6--6--6----|


  fools             to wretched                 
  |----3---|  |--3--|  |-----3-----|  |--3--|   
  E     E  E  E  E  E  E        E  E  E  E  E   
-----------------------------------------------|
-----------------------------------------------|
-----------------------------------------------|
-----------------------------------------------|
--2--------------------5-----------------------|
--0-----0--0--0--0--0--3--------3--3--3--3--3--|


  slaves.                                        PM -|       PM           
  |-----3----|  |--3--|  |--3--|  |--3--|                                 
  E       E  E  E  E  E  E  E  E  E  E  E     E  S  S  E  E  E  E  E  E   
-------------------------------------------|-----------------------------|
-------------------------------------------|-----------------------------|
-------------------------------------------|-----------------------------|
--3-------2--0-----------------------------|--------------------4--3-----|
----------------3--2--0--------------------|--8--------7--5-----2--1--3--|
-------------------------3--5--3--1--3--1--|--6--0--0--5--3--0--------1--|


  PM          PM                PM -|       PM           
  E  E  E  E  E  E  E  E     E  S  S  E  E  E  E  E  E   
--------------------------|-----------------------------|
--------------------------|-----------------------------|
--------------------------|-----------------------------|
-----5--4-----------6--7--|--------------------4--3-----|
-----3--2--4-----5--4--5--|--8--------7--5-----2--1--3--|
--0--------2--0--3--------|--6--0--0--5--3--0--------1--|


  PN                           PM -|       PM           
  E  E  E  E  E  E  Q       E  S  S  E  E  E  E  E  E   
-------------------------|-----------------------------|
-------------------------|-----------------------------|
-------------------------|-----------------------------|
-----------5--7--6-------|--------------------4--3-----|
-----4--5--3--5--4--6----|--8--------7--5-----2--1--3--|
--0--2--3-----------4----|--6--0--0--5--3--0--------1--|


  PM          PM                PM -|       PM           
  E  E  E  E  E  E  E  E     E  S  S  E  E  E  E  E  E   
--------------------------|-----------------------------|
--------------------------|-----------------------------|
--------------------------|-----------------------------|
-----5--4-----------6--7--|--------------------4--3-----|
-----3--2--4-----5--4--5--|--8--------7--5-----2--1--3--|
--0--------2--0--3--------|--6--0--0--5--3--0--------1--|


  PN                          Co  -   ma of souls.     (Only 1st Time)          
  E  E  E  E  E  E  Q         E  S  S E  E  S      S S S               S S S S  
-------------------------||----------------------------------------------------|
-------------------------||----------------------------------------------------|
-------------------------||*---------------------------------------------------|
-----------5--7--6-------||*---------------------------------------------------|
-----4--5--3--5--4--6----||---8-------7--5-------------------------------------|
--0--2--3-----------4----||---6--0--0-5--3--0------0-0-0---------------0-0-0-0-|


  E  S S E  E  E  E  Q         E  S S E  E  E  E  Q     
---------------------------||--------------------------|
---------------------------||--------------------------|
--------------------------*||--------------------------|
---------------7--6-------*||---------------7--6-------|
--8------7--5--5--4--6-----||--8------7--5--5--4--6----|
--6--0-0-5--3--------4-----||--6--0-0-5--3--------4----|


    Co  -   ma of souls.     (Only 1st Time)          
    E  S  S E  E  S      S S S               S S S S  
|----------------------------------------------------|
|----------------------------------------------------|
|*---------------------------------------------------|
|*---------------------------------------------------|
|---8-------7--5-------------------------------------|
|---6--0--0-5--3--0------0-0-0---------------0-0-0-0-|


  E  S S E  E  E  E  Q         E  S S E  E  E  E  E  E     E  E  H.            
---------------------------||---------------------------|---------------------|
---------------------------||---------------------------|---------------------|
--------------------------*||---------------------------|---------------------|
---------------7--6-------*||---------------7--6--------|---------------------|
--8------7--5--5--4--6-----||--8------7--5--5--4--6--5--|--2------------------|
--6--0-0-5--3--------4-----||--6--0-0-5--3--------4--3--|--0------------------|


---------------||
---------------||
---------------||
---------------||
---------------||
---------------||




            
            
Suggest correction
Creating personal tab
Creating personal tab
You can edit any tab online and save it as your Personal.

You can edit, replace or remove any tab part or add personal notes – all changes will be seen only by you.

Personal tabs can be accessed anytime from any device, even offline.
Learn more »
Give kudos to tab author, rate the tab!
1 2 3 4 5
comments
print report bad tab
3 comments total.
0 reply
PsYkO_kiLLa90 10 Mar 13, 2007 05:12 PM

dude this tab is ****ing awesome. ive only played a little bit of it but so far it sounds great. sweet tab for a sweet song.

+1 reply
PsYkO_kiLLa90 10 Mar 16, 2007 01:30 PM

actualy now that ive played more of the song, only the begining riffs are ****ing awesome and the riff right before the verse is when things started to sound very flawed.

0 reply
Mastol 71 Oct 23, 2007 10:07 AM

Honestly, I think you should practive a bit on these riffs.
They are 100% Accurate, I played it with the song dozens of times.

guest
You may want to rate the tab now too:
select rating
Wanna post a correction for this tab? Suggest correction