Oops, an error
Loading. Please wait.

Iron Destiny tab

version 1
version 1

Whole song

Interactive

by Kreator
214 views 1 this week
no commentswrite comment
1 2 3 4 5
3 more votes to show rating
add to favorites
×
Save as Personal and add changes to this tab that will be seen only by you. Learn more ›
×
You can save this tab as Personal to edit and correct it or add notes. All changes will be seen only by you. Learn more »
launch autoscroll
font size
0
reset
how to read this tab
guitar tuner
edit
Autoscroll
slow
fast
+/-
esc
set tempo
stop
            Kreator
          Iron Destiny                 


                                    

TUNING      EADGBE

                           
      E     S S E   E  S S E   E  S S  
D||--12-----0-0-0--12--0-0-0--12--0-0-|
A||-----------------------------------|
F||-----------------------------------|
C||-----------------------------------|
G||-----------------------------------|
D||-----------------------------------|


  E   E  S S E  Q    E  E   
--0--12--0-0-0--3----5--3--|
---------------------------|
---------------------------|
---------------------------|
---------------------------|
---------------------------|


   E  S S E   E  S S E   E  S S  
--12--0-0-0--12--0-0-0--12--0-0-|
--------------------------------|
--------------------------------|
--------------------------------|
--------------------------------|
--------------------------------|


  E   E  S S E  E  E  Q      
--0--12--0-0-0--3--5--3~----|
----------------------------|
----------------------------|
----------------------------|
----------------------------|
----------------------------|


   E  S S E   E  S S E   E  S S  
--12--0-0-0--12--0-0-0--12--0-0-|
--------------------------------|
--------------------------------|
--------------------------------|
--------------------------------|
--------------------------------|


  E   E  S S E  Q    E  E   
--0--12--0-0-0--3----5--3--|
---------------------------|
---------------------------|
---------------------------|
---------------------------|
---------------------------|


   E  S S E   E  S S E   E  E   
--12--0-0-0--12--0-0-0--12--0--|
-------------------------------|
-------------------------------|
-------------------------------|
-------------------------------|
-------------------------------|


                           ^       
   S   S   E   E   E   E   Q.      
--------------------------10------|
--------------------------10------|
--11h-12p-11s--9--11--------------|
----------------------12----------|
----------------------------------|
----------------------------------|


   E  S S E   E  S S E   E  S S  
--12---------12---------12------|
--------------------------------|
------9-9-9------9-9-9------9-9-|
--------------------------------|
--------------------------------|
--------------------------------|


  E   E  S S E  Q     E  E   
-----12---------------------|
----------------8----10--8--|
--9------9-9-9--------------|
----------------------------|
----------------------------|
----------------------------|


   E  S S E   E  S S E   E  S S  
--12--0-0-0--12--0-0-0--12--0-0-|
--------------------------------|
--------------------------------|
--------------------------------|
--------------------------------|
--------------------------------|


  E  E  E  E  E  E  E  E   
--3--5--3--0--3--5--3--0--|
--------------------------|
--------------------------|
--------------------------|
--------------------------|
--------------------------|


   E  S S E   E  S S E   E  S S  
--12--0-0-0--12--0-0-0--12--0-0-|
--------------------------------|
--------------------------------|
--------------------------------|
--------------------------------|
--------------------------------|


  E   E  S S E  Q    E  E   
--0--12--0-0-0--3----5--3--|
---------------------------|
---------------------------|
---------------------------|
---------------------------|
---------------------------|


   E  S S E   E  S S E   E  S S  
--12--0-0-0--12--0-0-0--12--0-0-|
--------------------------------|
--------------------------------|
--------------------------------|
--------------------------------|
--------------------------------|


  E  E  E  E  E  E  E  E   
--3--5--3--0--3--5--3--0--|
--------------------------|
--------------------------|
--------------------------|
--------------------------|
--------------------------|


   E  S S E   E  S S E   E  S S  
--12--0-0-0--12--0-0-0--12--0-0-|
--------------------------------|
--------------------------------|
--------------------------------|
--------------------------------|
--------------------------------|


  E   E  S S E  Q    E  E   
--0--12--0-0-0--3----5--3--|
---------------------------|
---------------------------|
---------------------------|
---------------------------|
---------------------------|


   E  S S E   E  S S E   E  S S  
--12--0-0-0--12--0-0-0--12--0-0-|
--------------------------------|
--------------------------------|
--------------------------------|
--------------------------------|
--------------------------------|


  E  E  E  E  E  E  E  E   
--3--5--3--0--3--5--3--5--|
--------------------------|
--------------------------|
--------------------------|
--------------------------|
--------------------------|


  "Dissonance"                 
  Q            E  Q.     Q     
--7------------7--5------3----|
------------------------------|
------------------------------|
------------------------------|
------------------------------|
------------------------------|


  Q    Q    H         
--3----2----2--------|
------------L--------|
------------L--------|
---------------------|
---------------------|
---------------------|


  E  E  E  E  E  E  Q     
-------------------------|
-----0-------------------|
-------------------------|
--------------0-----0----|
-----------------4-------|
--0-----0--0--3--2--3----|


  E  E  E  E  E  E  E  E   
--------------------------|
--------------------------|
--------------------------|
--L-----------------------|
-----------0--2--0--------|
--L--2--3-----------3--2--|


  E  E  E  E  E  E  Q     
-------------------------|
-----0-------------------|
-------------------------|
--------------0-----0----|
-----------------4-------|
--0-----0--0--3--2--3----|


  E  E  E  E  Q    Q     
------------------------|
------------------------|
--------------0----2----|
--L----------------0----|
-----------0--3---------|
--L--2--3---------------|


  E  E  E  E  E  E  Q     
-------------------------|
-----0-------------------|
-------------------------|
--------------0-----0----|
-----------------4-------|
--0-----0--0--3--2--3----|


  E  E  E  E  E  E  E  E   
--------------------------|
--------------------------|
--------------------------|
--L-----------------------|
-----------0--2--0--------|
--L--2--3-----------3--2--|


  Q    E  E  Q    E  E   
------------------------|
------------------------|
--0----------0----------|
------------------------|
--3----3--3--3----3--3--|
------------------------|


  Q    E  E  E  E  Q     
------------------------|
------------------------|
--0---------------------|
------------------------|
--3----------3-----3----|
-------0--0--1--0--1----|


  E  E  E  E  E  E  Q     
-------------------------|
-----0-------------------|
-------------------------|
--------------0-----0----|
-----------------4-------|
--0-----0--0--3--2--3----|


  E  E  E  E  E  E  E  E   
--------------------------|
--------------------------|
--------------------------|
--L-----------------------|
-----------0--2--0--------|
--L--2--3-----------3--2--|


  E  E  E  E  E  E  Q     
-------------------------|
-----0-------------------|
-------------------------|
--------------0-----0----|
-----------------4-------|
--0-----0--0--3--2--3----|


  E  E  E  E  Q    Q     
------------------------|
------------------------|
--------------0----2----|
--L----------------0----|
-----------0--3---------|
--L--2--3---------------|


  E  E  E  E  E  E  Q     
-------------------------|
-----0-------------------|
-------------------------|
--------------0-----0----|
-----------------4-------|
--0-----0--0--3--2--3----|


  E  E  E  E  E  E  E  E   
--------------------------|
--------------------------|
--------------------------|
--L-----------------------|
-----------0--2--0--------|
--L--2--3-----------3--2--|


  Q    E  E  Q    E  E   
------------------------|
------------------------|
--0----------0----------|
------------------------|
--3----3--3--3----3--3--|
------------------------|


  Q    E  E  E  E  Q     
------------------------|
------------------------|
--0---------------------|
------------------------|
--3----------3-----3----|
-------0--0--1--0--1----|


   Q     E  E  Q    E  E   
--12----------------------|
--15b---------------------|
--------------------------|
--------------------------|
--------------------------|
---------0--0--0----0--0--|


  Q    E  E  Q    Q     
-----------------------|
-----------------------|
-----------------------|
------------------4----|
------------------2----|
--0----0--0--0---------|


  Q    E  E  Q    E  E   
------------------------|
------------------------|
--2----------2----------|
--0----0--0--0----0--0--|
------------------------|
------------------------|


  Q    E  E  E  Q.      
-----------------------|
-----------------------|
--2----------2---------|
--0----0--0--0--4------|
----------------2------|
-----------------------|


  Q    E  E  Q    E  E   
------------------------|
------------------------|
--0----------0----------|
------------------------|
--3----3--3--3----3--3--|
------------------------|


  Q    E  E  E  E  Q     
------------------------|
------------------------|
--0---------------------|
-------------2--4--2----|
--3----3--3--3--5--3----|
------------------------|


  Q    E  E  Q    E  E   
------------------------|
------------------------|
------------------------|
--4----------4----------|
--2----2--2--2----0-----|
---------------------3--|


  E  E  E  E  E  E  E  E   
--------------------------|
--------------------------|
--------------------------|
-----------------------0--|
--4--4--------4--4--4-----|
--2--2--2--2--2--2--2--3--|


   Q     E  E  Q    E  E   
--12----------------------|
--15b---------------------|
--------------------------|
--------------------------|
--------------------------|
---------0--0--0----0--0--|


  Q    E  E  Q    Q     
-----------------------|
-----------------------|
-----------------------|
------------------4----|
------------------2----|
--0----0--0--0---------|


  Q    E  E  Q    E  E   
------------------------|
------------------------|
--2----------2----------|
--0----0--0--0----0--0--|
------------------------|
------------------------|


  Q    E  E  E  Q.      
-----------------------|
-----------------------|
--2----------2---------|
--0----0--0--0--4------|
----------------2------|
-----------------------|


  Q    E  E  Q    E  E   
------------------------|
------------------------|
--0----------0----------|
------------------------|
--3----3--3--3----3--3--|
------------------------|


  Q    E  E  E  E  Q     
------------------------|
------------------------|
------------------------|
--2----------2--4--2----|
--3----3--3--3--5--3----|
------------------------|


  Q    E  E  Q    E  E   
------------------------|
------------------------|
------------------------|
--4----------4----------|
--2----2--2--2----0-----|
---------------------3--|


  Q    E  E  Q    E  E   
------------------------|
------------------------|
--2----------2----------|
--0----0--0--0----0--0--|
------------------------|
------------------------|


  E  E  E  E  H           W                 
-----------------------|-------------------|
-----------------------|-------------------|
-----------------------|-------------------|
--------------2--------|--L----------------|
--2--2--2--2--2--------|--L----------------|
--0--0--0--0--0--------|--L----------------|


  W                   Q.     E  H         
-------------------|---------------------|
--3----------------|--L---------0--------|
--2----------------|--L------------------|
--0----------------|--L---------4--------|
-------------------|------------2--------|
-------------------|---------0-----------|


  E  E  E  E  H           W                 
-----------------------|-------------------|
-----------------------|-------------------|
-----------------------|-------------------|
--------------2--------|--L----------------|
--2--2--2--2--2--------|--L----------------|
--0--0--0--0--0--------|--L----------------|


  Q.     E  H           Q.     E  H         
---------------------|---------------------|
--1---------1--------|--0---------0--------|
--0------2--0--------|---------------------|
---------0-----------|--4------2--4--------|
--3---------3--------|--2------0--2--------|
---------------------|---------------------|


  E  E  E  E  H           W                 
-----------------------|-------------------|
-----------------------|-------------------|
-----------------------|-------------------|
--------------2--------|--L----------------|
--2--2--2--2--2--------|--L----------------|
--0--0--0--0--0--------|--L----------------|


  W                   Q.     E  H         
-------------------|---------------------|
--3----------------|--L---------0--------|
--2----------------|--L------------------|
--0----------------|--L---------4--------|
-------------------|------------2--------|
-------------------|---------0-----------|


  E  E  E  E  H           W                 
-----------------------|-------------------|
-----------------------|-------------------|
-----------------------|-------------------|
--------------2--------|--L----------------|
--2--2--2--2--2--------|--L----------------|
--0--0--0--0--0--------|--L----------------|


  Q.     E  H           Q.     E  H         
---------------------|---------------------|
--1---------1--------|--0---------0--------|
--0------2--0--------|---------------------|
---------0-----------|--4------2--4--------|
--3---------3--------|--2------0--2--------|
---------------------|---------------------|


  E  E  E  E  E  E  Q     
-------------------------|
-----0-------------------|
-------------------------|
--------------0-----0----|
-----------------4-------|
--0-----0--0--3--2--3----|


  E  E  E  E  E  E  E  E   
--------------------------|
--------------------------|
--------------------------|
--L-----------------------|
-----------0--2--0--------|
--L--2--3-----------3--2--|


  E  E  E  E  E  E  Q     
-------------------------|
-----0-------------------|
-------------------------|
--------------0-----0----|
-----------------4-------|
--0-----0--0--3--2--3----|


  E  E  E  E  Q    Q     
------------------------|
------------------------|
--------------0----2----|
--L----------------0----|
-----------0--3---------|
--L--2--3---------------|


  E  E  E  E  E  E  Q     
-------------------------|
-----0-------------------|
-------------------------|
--------------0-----0----|
-----------------4-------|
--0-----0--0--3--2--3----|


  E  E  E  E  E  E  E  E   
--------------------------|
--------------------------|
--------------------------|
--L-----------------------|
-----------0--2--0--------|
--L--2--3-----------3--2--|


  Q    E  E  Q    E  E   
------------------------|
------------------------|
--0----------0----------|
------------------------|
--3----3--3--3----3--3--|
------------------------|


  Q    E  E  E  E  Q     
------------------------|
------------------------|
--0---------------------|
------------------------|
--3----------3-----3----|
-------0--0--1--0--1----|


   Q     E  E  Q    E  E   
--12----------------------|
--15b---------------------|
--------------------------|
--------------------------|
--------------------------|
---------0--0--0----0--0--|


  Q    E  E  Q    Q     
-----------------------|
-----------------------|
-----------------------|
------------------4----|
------------------2----|
--0----0--0--0---------|


  Q    E  E  Q    E  E   
------------------------|
------------------------|
--2----------2----------|
--0----0--0--0----0--0--|
------------------------|
------------------------|


  Q    E  E  E  Q.      
-----------------------|
-----------------------|
--2----------2---------|
--0----0--0--0--4------|
----------------2------|
-----------------------|


  Q    E  E  Q    E  E   
------------------------|
------------------------|
--0----------0----------|
------------------------|
--3----3--3--3----3--3--|
------------------------|


  Q    E  E  E  E  Q     
------------------------|
------------------------|
------------------------|
--2----------2--4--2----|
--3----3--3--3--5--3----|
------------------------|


  Q    E  E  Q    E  E   
------------------------|
------------------------|
------------------------|
--4----------4----------|
--2----2--2--2----0-----|
---------------------3--|


  E  E  E  E  E  E  E  E   
--------------------------|
--------------------------|
--------------------------|
-----------------------0--|
--4--4--------4--4--4-----|
--2--2--2--2--2--2--2--3--|


   Q     E  E  Q    E  E   
--12----------------------|
--15b---------------------|
--------------------------|
--------------------------|
--------------------------|
---------0--0--0----0--0--|


  Q    E  E  Q    Q     
-----------------------|
-----------------------|
-----------------------|
------------------4----|
------------------2----|
--0----0--0--0---------|


  Q    E  E  Q    E  E   
------------------------|
------------------------|
--2----------2----------|
--0----0--0--0----0--0--|
------------------------|
------------------------|


  Q    E  E  E  Q.      
-----------------------|
-----------------------|
--2----------2---------|
--0----0--0--0--4------|
----------------2------|
-----------------------|


  Q    E  E  Q    E  E   
------------------------|
------------------------|
--0----------0----------|
------------------------|
--3----3--3--3----3--3--|
------------------------|


  Q    E  E  E  E  Q     
------------------------|
------------------------|
------------------------|
--2----------2--4--2----|
--3----3--3--3--5--3----|
------------------------|


  Q    E  E  Q    E  E   
------------------------|
------------------------|
------------------------|
--4----------4----------|
--2----2--2--2----0-----|
---------------------3--|


  Q    E  E  Q    E  E   
------------------------|
------------------------|
--2----------2----------|
--0----0--0--0----0--0--|
------------------------|
------------------------|


  E  E  E  E  H           W                 
-----------------------|-------------------|
-----------------------|-------------------|
-----------------------|-------------------|
--------------2--------|--L----------------|
--2--2--2--2--2--------|--L----------------|
--0--0--0--0--0--------|--L----------------|


  W                   Q.     E  H         
-------------------|---------------------|
--3----------------|--L---------0--------|
--2----------------|--L------------------|
--0----------------|--L---------4--------|
-------------------|------------2--------|
-------------------|---------0-----------|


  E  E  E  E  H           W                 
-----------------------|-------------------|
-----------------------|-------------------|
-----------------------|-------------------|
--------------2--------|--L----------------|
--2--2--2--2--2--------|--L----------------|
--0--0--0--0--0--------|--L----------------|


  Q.     E  H           Q.     E  H         
---------------------|---------------------|
--1---------1--------|--0---------0--------|
--0------2--0--------|---------------------|
---------0-----------|--4------2--4--------|
--3---------3--------|--2------0--2--------|
---------------------|---------------------|


  E  E  E  E  H           W                 
-----------------------|-------------------|
-----------------------|-------------------|
-----------------------|-------------------|
--------------2--------|--L----------------|
--2--2--2--2--2--------|--L----------------|
--0--0--0--0--0--------|--L----------------|


  W                   Q.     E  H         
-------------------|---------------------|
--3----------------|--L---------0--------|
--2----------------|--L------------------|
--0----------------|--L---------4--------|
-------------------|------------2--------|
-------------------|---------0-----------|


  E  E  E  E  H           W                 
-----------------------|-------------------|
-----------------------|-------------------|
-----------------------|-------------------|
--------------2--------|--L----------------|
--2--2--2--2--2--------|--L----------------|
--0--0--0--0--0--------|--L----------------|


  Q.     E  H           Q.     E  H         
---------------------|---------------------|
--1---------1--------|--0---------0--------|
--0------2--0--------|---------------------|
---------0-----------|--4------2--4--------|
--3---------3--------|--2------0--2--------|
---------------------|---------------------|


  E  E  E  E  E  E  E  E   
-----0--------------------|
--1-----3--1--3--1--0--1--|
--------------------------|
--------------------------|
--------------------------|
--------------------------|


  E  E  E  E  E  E  E  E   
--------------------------|
--------0--1--3--1--0--1--|
--0--2--------------------|
--------------------------|
--------------------------|
--------------------------|


  E  E  E  E  E  E  E  E   
-----0--------------------|
--1-----3--1--3--1--0--1--|
--------------------------|
--------------------------|
--------------------------|
--------------------------|


  E  E  E  E  E  E  E  E   
--------------------0-----|
--------0--1--3--1-----1--|
--0--2--------------------|
--------------------------|
--------------------------|
--------------------------|


  E  E  E  E  E  E  E  E   
-----0--------------------|
--1-----3--1--3--1--0--1--|
--------------------------|
--------------------------|
--------------------------|
--------------------------|


  E  E  E  E  E  E  E  E   
--------------------------|
--------0--1--3--1--0--1--|
--0--2--------------------|
--------------------------|
--------------------------|
--------------------------|


  E  E  E  E  E  E  E  E   
-----0--------------------|
--1-----3--1--3--1--0--1--|
--------------------------|
--------------------------|
--------------------------|
--------------------------|


  E  E  E  E  E  E  E  E   
--------------------0-----|
--------0--1--3--1-----1--|
--0--2--------------------|
--------------------------|
--------------------------|
--------------------------|


  E  E  E  E  Q    E  E   
-------------------------|
-----1--0-----0-------0--|
--2--------2-------2-----|
-------------------------|
-------------------------|
-------------------------|


  Q    E  E  Q    E  E   
------------------------|
--1----0-----0-------0--|
----------2-------2-----|
------------------------|
------------------------|
------------------------|


  Q    E  E  H            W                 
-----------------------|-------------------|
--3----1--0--1~--------|--L----------------|
-----------------------|-------------------|
-----------------------|-------------------|
-----------------------|-------------------|
-----------------------|-------------------|


  E  E  E  E  Q    E  E   
-------------------------|
-----1--0-----0-------0--|
--2--------2-------2-----|
-------------------------|
-------------------------|
-------------------------|


  Q    E  E  Q    E  E   
------------------------|
--1----0-----0-------0--|
----------2-------2-----|
------------------------|
------------------------|
------------------------|


  Q    E  E  H            W                 
-----------------------|-------------------|
----------0--1~--------|--L----------------|
-------2---------------|-------------------|
--3--------------------|-------------------|
-----------------------|-------------------|
-----------------------|-------------------|


  E  E  E  E  Q    E  E   
-------------------------|
-----1--0-----0-------0--|
--2--------2-------2-----|
-------------------------|
-------------------------|
-------------------------|


  Q    E  E  Q    E  E   
------------------------|
--1----0-----0-------0--|
----------2-------2-----|
------------------------|
------------------------|
------------------------|


  Q    E  E  H            W                 
-----------------------|-------------------|
--3----1--0--1~--------|--L----------------|
-----------------------|-------------------|
-----------------------|-------------------|
-----------------------|-------------------|
-----------------------|-------------------|


  E  E  E  E  Q    E  E   
-------------------------|
-----1--0-----0-------0--|
--2--------2-------2-----|
-------------------------|
-------------------------|
-------------------------|


  Q    E  E  Q    E  E   
------------------------|
--1----0-----0-------0--|
----------2-------2-----|
------------------------|
------------------------|
------------------------|


  Q    E  E  Q    E  E   
------------------------|
----------0--1----0-----|
-------2-------------2--|
--3---------------------|
------------------------|
------------------------|


  Q    E  E  Q    E  E   
------------------------|
-------0--1--3----1--0--|
--0---------------------|
------------------------|
------------------------|
------------------------|


  E   E.   Q     S S S S S E     
------0~---0~----0-0-0-0-0-0b~--|
--3s----------------------------|
--------------------------------|
--------------------------------|
--------------------------------|
--------------------------------|


       SH                     
  E    H         S S S S S S  
--L--<>0~--------0-0-0-0-0-0-|
-----------------------------|
-----------------------------|
-----------------------------|
-----------------------------|
-----------------------------|


  Q     Q     E  E  E  E   
--0b----0b----0-----0-----|
-----------------2-----2--|
--------------------------|
--------------------------|
--------------------------|
--------------------------|


  E  E  E  E    H          
--------0--3--<>2~--------|
--0--2--------------------|
--------------------------|
--------------------------|
--------------------------|
--------------------------|


  E  Q      S   S  E   Q      S   S  
--5--5b----12p-10------------12p-10-|
------------------10--10b-----------|
------------------------------------|
------------------------------------|
------------------------------------|
------------------------------------|


   E   Q      S   S  E   Q      S   S  
-------------12p-10------------12p-10-|
--10--10b-----------10--10b-----------|
--------------------------------------|
--------------------------------------|
--------------------------------------|
--------------------------------------|


   E   Q     E  Q     S  S  E   
-------------------------5p-3--|
--10--10b----8--8b----8p-------|
-------------------------------|
-------------------------------|
-------------------------------|
-------------------------------|


  E  E  E  E  H          
--0---------------------|
-----3--0---------------|
-----------2--0~--------|
------------------------|
------------------------|
------------------------|


  Q    E  E  E  E  E  E   
-------------------------|
-------------------------|
-------------------0-----|
-------------0--2-----2--|
--0----0--3--------------|
-------------------------|


  E  E  E  Q    E  E  E   
----------------0--3--5--|
--1--1-------------------|
-----------2-------------|
-------------------------|
-------------------------|
-------------------------|


   E   E  E   E  E  E  E  E   
--10------8--10--8--7--5--4--|
------10---------------------|
-----------------------------|
-----------------------------|
-----------------------------|
-----------------------------|


  E  E  E  E  H          
--3--0--3--0--5~--------|
------------------------|
------------------------|
------------------------|
------------------------|
------------------------|


   Q      E   Q      E   Q      
--10b----12--10b----12--10b----|
-------------------------------|
-------------------------------|
-------------------------------|
-------------------------------|
-------------------------------|


   E   Q      E   S   E   S   E   E   
--12--10b----12--12h-15------12--10--|
-------------------------15p---------|
-------------------------------------|
-------------------------------------|
-------------------------------------|
-------------------------------------|


   E    E   E  Q.      S  S  E   
-----------10--5~------3h-5p-3--|
--10b--10-----------------------|
--------------------------------|
--------------------------------|
--------------------------------|
--------------------------------|


  E  E  E  E  E  E  E  E   
--5--3--0-----0-----------|
-----------3-----3--0-----|
-----------------------2--|
--------------------------|
--------------------------|
--------------------------|


  W                    W                 
--------------------|-------------------|
--------------------|-------------------|
--------------------|-------------------|
--2~----------------|--L----------------|
--------------------|-------------------|
--------------------|-------------------|


  W                   W                 
-------------------|-------------------|
-------------------|-------------------|
-------------------|-------------------|
--L----------------|--L----------------|
-------------------|-------------------|
-------------------|-------------------|


  W                                     
-------------------|-------------------|
-------------------|-------------------|
--x----------------|-------------------|
--x----------------|-------------------|
--x----------------|-------------------|
-------------------|-------------------|


-------------------|-------------------|
-------------------|-------------------|
-------------------|-------------------|
-------------------|-------------------|
-------------------|-------------------|
-------------------|-------------------|


-------------------|-------------------|
-------------------|-------------------|
-------------------|-------------------|
-------------------|-------------------|
-------------------|-------------------|
-------------------|-------------------|


-------------------|-------------------|
-------------------|-------------------|
-------------------|-------------------|
-------------------|-------------------|
-------------------|-------------------|
-------------------|-------------------|


-------------------|-------------------|
-------------------|-------------------|
-------------------|-------------------|
-------------------|-------------------|
-------------------|-------------------|
-------------------|-------------------|


-------------------|-------------------|
-------------------|-------------------|
-------------------|-------------------|
-------------------|-------------------|
-------------------|-------------------|
-------------------|-------------------|


-------------------|-------------------|
-------------------|-------------------|
-------------------|-------------------|
-------------------|-------------------|
-------------------|-------------------|
-------------------|-------------------|


-------------------|-------------------|
-------------------|-------------------|
-------------------|-------------------|
-------------------|-------------------|
-------------------|-------------------|
-------------------|-------------------|


-------------------|-------------------|
-------------------|-------------------|
-------------------|-------------------|
-------------------|-------------------|
-------------------|-------------------|
-------------------|-------------------|


-------------------|-------------------|
-------------------|-------------------|
-------------------|-------------------|
-------------------|-------------------|
-------------------|-------------------|
-------------------|-------------------|


  E  E  E  E  H           W                 
-----------------------|-------------------|
-----------------------|-------------------|
-----------------------|-------------------|
--------------2--------|--L----------------|
--2--2--2--2--2--------|--L----------------|
--0--0--0--0--0--------|--L----------------|


  W                   Q.     E  H         
-------------------|---------------------|
--3----------------|--L---------0--------|
--2----------------|--L------------------|
--0----------------|--L---------4--------|
-------------------|------------2--------|
-------------------|---------0-----------|


  E  E  E  E  H           W                 
-----------------------|-------------------|
-----------------------|-------------------|
-----------------------|-------------------|
--------------2--------|--L----------------|
--2--2--2--2--2--------|--L----------------|
--0--0--0--0--0--------|--L----------------|


  Q.     E  H           Q.     E  H         
---------------------|---------------------|
--1---------1--------|--0---------0--------|
--0------2--0--------|---------------------|
---------0-----------|--4------2--4--------|
--3---------3--------|--2------0--2--------|
---------------------|---------------------|


  E  E  E  E  H           W                 
-----------------------|-------------------|
-----------------------|-------------------|
-----------------------|-------------------|
--------------2--------|--L----------------|
--2--2--2--2--2--------|--L----------------|
--0--0--0--0--0--------|--L----------------|


  W                   Q.     E  H         
-------------------|---------------------|
--3----------------|--L---------0--------|
--2----------------|--L------------------|
--0----------------|--L---------4--------|
-------------------|------------2--------|
-------------------|---------0-----------|


  E  E  E  E  H           W                 
-----------------------|-------------------|
-----------------------|-------------------|
-----------------------|-------------------|
--------------2--------|--L----------------|
--2--2--2--2--2--------|--L----------------|
--0--0--0--0--0--------|--L----------------|


  Q.     E  H           Q.     E  H         
---------------------|---------------------|
--1---------1--------|--0---------0--------|
--0------2--0--------|---------------------|
---------0-----------|--4------2--4--------|
--3---------3--------|--2------0--2--------|
---------------------|---------------------|


  E  E  E  E  E  E  E  E   
--------------------------|
--------------------------|
--0--------0--------0-----|
--------------------------|
--3--3--3--3--3--3--3--3--|
--------------------------|


  Q    Q    H           Q    Q    H         
---------------------|---------------------|
---------------------|---------------------|
-------0----2--------|--0------------------|
--4---------0--------|-------4----2--------|
--2----3-------------|--3----2----0--------|
---------------------|---------------------|


  Q    H.            
--------------------|
--------------------|
--------------------|
--4----0------------|
--2-----------------|
-------3------------|


  E  E  E  E  E  E  E  E   
--------------------------|
--------------------------|
--0--------0--------0-----|
--------------------------|
--3--3--3--3--3--3--3--3--|
--------------------------|


  Q    Q    H           Q    Q    H         
---------------------|---------------------|
---------------------|---------------------|
-------0----2--------|--0---------2--------|
--4---------0--------|-------4----0--------|
--2----3-------------|--3----2-------------|
---------------------|---------------------|


  Q    H.            
--------------------|
--0----1------------|
--------------------|
--2----3------------|
--------------------|
--------------------|


   E  S S E   E  S S E   E  S S  
--12--0-0-0--12--0-0-0--12--0-0-|
--------------------------------|
--------------------------------|
--------------------------------|
--------------------------------|
--------------------------------|


  E   E  S S E  E  E  E  E   
--0--12--0-0-0--3-----5--3--|
----------------------------|
----------------------------|
----------------------------|
----------------------------|
----------------------------|


   E  S S E   E  S S E   E  S S  
--12--0-0-0--12--0-0-0--12--0-0-|
--------------------------------|
--------------------------------|
--------------------------------|
--------------------------------|
--------------------------------|


  E   E  S S E  E  E  Q     
--0--12--0-0-0--3--5--3----|
---------------------------|
---------------------------|
---------------------------|
---------------------------|
---------------------------|


   E  S S E   E  S S E   E  S S  
--12--0-0-0--12--0-0-0--12--0-0-|
--------------------------------|
--------------------------------|
--------------------------------|
--------------------------------|
--------------------------------|


  E   E  S S E  E  E  E  E   
--0--12--0-0-0--3--3--5--3--|
----------------------------|
----------------------------|
----------------------------|
----------------------------|
----------------------------|


   E  S S E   E  S S E   E  S S  
--12--0-0-0--12--0-0-0--12--0-0-|
--------------------------------|
--------------------------------|
--------------------------------|
--------------------------------|
--------------------------------|


  E  E  E  E  E  E  E  E   
--3--5--3--0--3--5--3--0--|
--------------------------|
--------------------------|
--------------------------|
--------------------------|
--------------------------|


   E  S S E   E  S S E   E  S S  
--12--0-0-0--12--0-0-0--12--0-0-|
--------------------------------|
--------------------------------|
--------------------------------|
--------------------------------|
--------------------------------|


  E   E  S S E  Q    E  E   
--0--12--0-0-0--3----5--3--|
---------------------------|
---------------------------|
---------------------------|
---------------------------|
---------------------------|


   E  S S E   E  S S E   E  S S  
--12--0-0-0--12--0-0-0--12--0-0-|
--------------------------------|
--------------------------------|
--------------------------------|
--------------------------------|
--------------------------------|


  E  E  E  E  E  E  E  E   
--3--5--3--0--3--5--3--5--|
--------------------------|
--------------------------|
--------------------------|
--------------------------|
--------------------------|


   E  S S E   E   S  S  E  E  S S  
--12--0-0-0--12---0--0--0--L--0-0-|
------------------------------8-8-|
-----------------12-12-12--L------|
----------------------------------|
----------------------------------|
----------------------------------|


  H        H           W                 
--0--------5--------|--7----------------|
--8--------5--------|--0----------------|
--------------------|-------------------|
-----------7--------|-------------------|
--------------------|-------------------|
--------------------|-------------------|


  W                   W                 
--L----------------|--L----------------|
--L----------------|-------------------|
-------------------|-------------------|
-------------------|--L----------------|
-------------------|-------------------|
-------------------|-------------------|


  W                   W                 
--L----------------|--L----------------|
-------------------|-------------------|
-------------------|-------------------|
--L----------------|--L----------------|
-------------------|-------------------|
-------------------|-------------------|


  W                   W                 
--L----------------|--L----------------|
-------------------|-------------------|
-------------------|-------------------|
--L----------------|--L----------------|
-------------------|-------------------|
-------------------|-------------------|


  W                   W                 
--L----------------|--L----------------|
-------------------|-------------------|
-------------------|-------------------|
--L----------------|--L----------------|
-------------------|-------------------|
-------------------|-------------------|


  W                   H        E  E  E  E   
--L----------------|--L--------------------|
-------------------|-----------------------|
-------------------|-----------------------|
--L----------------|--L--------0-----------|
-------------------|--------------4--2--4--|
-------------------|-----------3--2--0--2--|


  E  E  E  E  E  E  E  E   
--------------------------|
--------------------------|
-----------------------0--|
--2--2--------4--4-----0--|
--2--2--------4--4--------|
--0--0--0--0--2--2--0--3--|


  E  E  Q    H           W                 
-------------0--------|--L----------------|
--------3-------------|-------------------|
--0-------------------|-------------------|
--0-----0----2--------|--L----------------|
----------------------|-------------------|
--3--0----------------|-------------------|


-------------------||
-------------------||
-------------------||
-------------------||
-------------------||
-------------------||




Duration Legend
---------------
W - whole
H - half
Q - quarter
E - 8th
S - 16th
T - 32nd
X - 64th
. - note dotted
|-n-|  - n-tuplets


Tablature Legend
----------------
L - tied note
x - dead note
g - grace note
(n) - ghost note
> - accentuded note
NH - natural harmonic
AH - artificial harmonic
TH - tapped harmonic
SH - semi harmonic
PH - pitch harmonic
h - hammer on
p - pull off
b - bend
br - bendRelease
pb - preBend
pbr - preBendRelease
brb - bendReleaseBend
\n/ - tremolo bar dip
\n - tremolo bar dive
-/n - tremolo bar Release up
/n\ - tremolo bar inverted dip
/n - tremolo bar return
-\n - tremolo bar Release down
S - shift slide
s - legato slide
/ -  slide into from below or out of upwards
\ -  slide into from above or out of downwards
~ - vibrato
W - wide vibrato
tr - trill
TP - tremolo picking
T - tapping
S - slap
P - pop
< - fade in
^ - brush up
v - brush down

            
            
Suggest correction
Creating personal tab
Creating personal tab
You can edit any tab online and save it as your Personal.

You can edit, replace or remove any tab part or add personal notes – all changes will be seen only by you.

Personal tabs can be accessed anytime from any device, even offline.
Learn more »
Give kudos to tab author, rate the tab!
1 2 3 4 5
comments
print report bad tab
guest
You may want to rate the tab now too:
select rating
Wanna post a correction for this tab? Suggest correction