Oops, an error
Loading. Please wait.

Phobia Bass Tab

version 1
version 1

Whole song

6,214 views 3 this week
no commentswrite comment
1 2 3 4 5
please rate
add to favorites
launch autoscroll
font size
0
reset
guitar tuner
Tab Pro tools
  • play this tab
  • loop segment
  • change instrument
  • show fretboard
  • metronome
×
Best way to learn
"Phobia"
Autoscroll
slow
fast
+/-
esc
set tempo
stop
Contributor
Tuning
D G C F A D
Band: Kreator
Song: Phobia
Album: Outcast (1997)
Bassist: Christian Giesler
Tuning: D tuning

Intro

  0:10
F|--------------------------|
C|--------------------------| x3
G|------------------3---3---|
D|-0-00-0-00-0-00-0---0---0-|

  0:17
F|--------------------------------|
C|--------------------------------|
G|--------------------------------|
D|-2-2-2-2-3-2--5-5-5-5-5-5-3-2-0-|

Verse 1
  0:21
F|-----------|---------|----------------------------------------|
C|-----------|---------|----------------------------------------|
G|---3---3---|-3---3---|---3---3--------------------------------|
D|-0---0---0-|---0---0-|-0---0---2-2-2-2-3-2--5-5-5-5-5-5-3-2-0-|

  0:30
F|--------------------------|
C|--------------------------| x3
G|------------------3---3---|
D|-0-00-0-00-0-00-0---0---0-|

  0:37
F|--------------------------------|
C|--------------------------------|
G|--------------------------------|
D|-2-2-2-2-3-2--5-5-5-5-5-5-3-2-0-|

Pre-chorus
  0:40
F|--------|----------|---------|-----------|
C|--------|----------|---------|-----------|
G|----2-3-|----2-3---|-----2-3-|-----2-3---|
D|-00-----|-00-----1-|-000-----|-000-----1-|

Chorus
  0:50
F|---------------------------------------------------------------|
C|---------------------------------------------------------------|
G|---------------------------------------------------------------|
D|-0-0-0-0-3-3-3-3-2-2-2-2-2-2-0-2-3-3-3-3-5--3--2-2-2-2-2-2-0-2-|

  1:00
F|-----------------------------------------------------------------|
C|-----------------------------------------------------------------|
G|-----------------------------------------------------------------|
D|-0-0-0-0-3-3-3-3-2-2-2-2-2-2-0-2-3-3-3-3-5--3--2-2-2-2-2-2-0-2-0-|

Verse 2
  1:11
F|-----------|---------|----------------------------------------|
C|-----------|---------|----------------------------------------|
G|---3---3---|-3---3---|---3---3--------------------------------|
D|-0---0---0-|---0---0-|-0---0---2-2-2-2-3-2--5-5-5-5-5-5-3-2-0-|

  1:20
F|--------------------------|
C|--------------------------| x3
G|------------------3---3---|
D|-0-00-0-00-0-00-0---0---0-|

  1:27
F|--------------------------------|
C|--------------------------------|
G|--------------------------------|
D|-2-2-2-2-3-2--5-5-5-5-5-5-3-2-0-|

Pre-chorus
  1:29
F|--------|----------|---------|-----------|
C|--------|----------|---------|-----------|
G|----2-3-|----2-3---|-----2-3-|-----2-3---|
D|-00-----|-00-----1-|-000-----|-000-----1-|

Chorus
  1:40
F|---------------------------------------------------------------|
C|---------------------------------------------------------------| x2
G|---------------------------------------------------------------|
D|-0-0-0-0-3-3-3-3-2-2-2-2-2-2-0-2-3-3-3-3-5--3--2-2-2-2-2-2-0-2-|

  2:09
F|--------------------------|
C|--------------------------| x3
G|------------------3---3---|
D|-0-00-0-00-0-00-0---0---0-|

Verse 3
  2:19
F|--------------------------|
C|--------------------------| x3
G|------------------3---3---|
D|-0-00-0-00-0-00-0---0---0-|

  2:27
F|--------------------------------|
C|--------------------------------|
G|--------------------------------|
D|-2-2-2-2-3-2--5-5-5-5-5-5-3-2-0-|

  2:29
F|--------------------------|
C|--------------------------| x3
G|------------------3---3---|
D|-0-00-0-00-0-00-0---0---0-|

  2:37
F|--------------------------------|
C|--------------------------------|
G|--------------------------------|
D|-2-2-2-2-3-2--5-5-5-5-5-5-3-2-0-|

Pre-chorus
  2:39
F|--------|----------|---------|-----------|
C|--------|----------|---------|-----------|
G|----2-3-|----2-3---|-----2-3-|-----2-3---|
D|-00-----|-00-----1-|-000-----|-000-----1-|

Chorus
  2:49
F|---------------------------------------------------------------|
C|---------------------------------------------------------------| x2
G|---------------------------------------------------------------|
D|-0-0-0-0-3-3-3-3-2-2-2-2-2-2-0-2-3-3-3-3-5--3--2-2-2-2-2-2-0-2-|

Outro
  3:09
F|--------------------------|
C|--------------------------| x3
G|------------------3---3---|
D|-0-00-0-00-0-00-0---0---0-|

  3:17
F|--------------------------------|
C|--------------------------------|
G|--------------------------------|
D|-2-2-2-2-3-2--5-5-5-5-5-5-3-2-0-|
comments
We did not receive enough feedback on this tab! Please rate:
print report bad tab
1 2 3 4 5
I want to post or [tab]
guest
You may want to rate the tab now too:
select rating
Please do not post tabs as comments. Select "correction" instead!