Oops, an error
Loading. Please wait.

Riot Of Violence Bass Tab

version 1
version 1

Whole song

Interactive

470 views 6 this week
no commentswrite comment
1 2 3 4 5
3 more votes to show rating
add to favorites
launch autoscroll
font size
0
reset
guitar tuner
Autoscroll
slow
fast
+/-
esc
set tempo
stop
Help us to improve Ultimate-Guitar.com Take our survey!
×
Author
Intro:
F|-----------------------------------------|
C|-----------------------------------------|
G|------3-------1------3-------------------|
D|----------------------------3------------|

Verse:
F|-----------------------------------------|
C|-----------------------------------------|
G|-------1-----2-----3-----3-3-1-----------|
D|-0-0-0---0-0---0-0---0-0-----------------|

Pre-chorus:
F|-----------------------------------------|
C|-----------------------------------------|
G|-1--1-1-1-1--1-1-----------------1-1--1-1|
D|-----------------0--0-0-0-0--0-0---------|

F|-----------------------------------------|
C|-----------------------------------------|
G|-1-1--1-1--------------------------------|
D|----------0------------------------------|

Bridge a):
F|----5-4---7-5-------5-4---7-5-4-0--------|
C|--0-----0-----0---0-----0----------------|
G|-----------------------------------------|
D|-----------------------------------------|

Bridge b):
F|-----------------------------------------|
C|----5-4---7-5-4-0---5-4---7-5------------|
G|--0-----0---------0-----0-----3-2--------|
D|-----------------------------------------|

Chorus:
F|-----------------------------------------|
C|-----------------------------------------|
G|-2-2-2-3-0-5--2-2-2-3-0-5----------------|
D|-----------------------------------------|

Fill:
d|-------------------|
A|--------------3-2--|
F|--3-2-0-5-3-2------|
C|-------------------|


F|-----------------------------------------|
C|-----------------------------------------|
G|-------1-----2-----3-----3-3-1-----------|
D|-0-0-0---0-0---0-0---0-0-----------------|

F|-----------------------------------------|
C|-----------------------------------------|
G|-1--1-1-1-1--1-1-----------------1-1--1-1|
D|-----------------0--0-0-0-0--0-0---------|

F|-----------------------------------------|
C|-----------------------------------------|
G|-1-1--1-1--------------------------------|
D|----------0------------------------------|

F|------------------------------------------------------|
C|------------------------------------------------------|
G|-------------------------------------------3-2-0-5-3-2|
D|--2--2-2-2--2-2-2--2-2-2-3---2--2-2-2--2-2------------|

F|--------------------------------------------------|
C|------3322----1111111111----3322------------------|
G|--0000----0033----------0000----0022333333--------|
D|------------------------------------------333333--|

Solo:
F|-----------------:|--------------------:|
C|-----------------:|--------------5-----:|
G|--222222223322---:|---0000000000-3-----:|
D|-----------------:|--------------------:|

F|-----------------------------------------|
C|-----------------------------------------|
G|-----------------------------------------|
D|-0--------------------0-0----------------|

F|------------------------------------------|
C|------------------------------------------|
G|-7-7----8---7---10--8-7-7----8---7---10--8|
D|-----00---00--00----------00---00--00-----|

F|--3p2h3p2--------------------------------|
C|---------3p2h3p2-5-3-2-------------------|
G|-----------------------3-----------------|
D|-------------------------0-0-0-0-0-------|
Suggest correction
Give kudos to tab author, rate the tab!
1 2 3 4 5
comments
print report bad tab
guest
You may want to rate the tab now too:
select rating
Wanna post a correction for this tab? Suggest correction