Oops, an error
Loading. Please wait.

Violent Revolution Bass Tab

version 1
version 1

Whole song

Interactive

4,561 views 1 this week
no commentswrite comment
1 2 3 4 5
excellent!
x 3
add to favorites
launch autoscroll
font size
0
reset
guitar tuner
Tab Pro tools
  • play this tab
  • loop segment
  • change instrument
  • show fretboard
  • metronome
×
Best way to learn
"Violent Revolution"
Autoscroll
slow
fast
+/-
esc
set tempo
stop
Contributor
Difficulty
Tuning
intermediate
D A D G B E
Kreator
Violent Revolution

Riff A.1 {0:00}
|---------------------------------------------------| 
|---------------------------------------------------|
|---------------------------------------------------|
|-0--------------3-5-6-3--------------0-3-5-3-6-0---| 

|----------------------------------------------------| 
|----------------------------------------------------| 
|----------------------------------------------------|
|-0--------------3-5-6-1---------------0-3-5-3-6-0---| 
 
Riff A.1 {0:13} 
Riff A.2 {0:20} tocar as notas repitidamente
 
Riff B {0:26} Repeat 2X
                3X
|-----------------------------------|---|---|---------------------------------|
|-----------------------------------|---|---|---------------------------------|
|*---------------------------------*|-*-|-*-|---------------------------------|
|--1-0-0-0-000-0-0-000-0-0-0-3-2-3--|---|---|-3-5-5-5-555-5-5-555-5-5-5-3-2-3-| 
 
Riff C {0:53}  
|--------------------------------------|--------------------------------------|
|--------------------------------------|--------------------------------------| 
|*------------------------------------*|------------------------------------8-| 
|--1-0--0--0--1-1-0--0-0-5-0-0-6-0-5-3-|--1-0--0--0--1-1-0--0-0-5-0-0-6-0-5---|
 
|--------------------------------------|------------------------------------------|
|--------------------------------------|------------------------------------------|
|*------------------------------------*|------------------------------------------|
|--1-0--0--0--1-1-0--0-0-5-0-0-6-0-5-3-|-1-0--0--0--1-1-0--0-0-6-6-0-0-0-7-7-0-0-0|

Riff B {1:07} 
Riff C {1:33} 
 
Riff D.1 {1:47}                      
|----------------------------------|
|----------------------------------|
|----------------------------------|
|-0-------0-0-------0------0-0-----|
 
Riff E.1 {2:13} 
|-------------------------------------------------------------| 
|-------------------------------------------------------------| 
|-------3---------------3--------------3--------------------5-| 
|-1-0-0----3-5-6--1-0-0---3-2-1--1-0-0----3-5-6--3-5-3--2-1---|
 
Riff E.2 {2:40} 
Base solo
|-------------------------------------------------------------|
|-------3---------------3--------------3--------------------5-|
|-1-0-0----3-5-6--1-0-0---3-2-1--1-0-0----3-5-6--3-5-3--2-1---|
|-------------------------------------------------------------|
 
Riff A.1 {3:07} 
Riff A.2 {3:13}  
Riff A.1 {3:20} 
Riff A.2 {3:27} 
Riff C   {3:33} 
Riff C   {3:46} 

Riff F {4:00}
|-------------------------------------------------------------------| 
|-------------------------------------------------------------------| 
|-------------------------------------------------------------------| 
|-5555-5--5555-5--5555-5--5555-3-5-1111-1--1111-1--1111-1--1111-0-1-| 

|----------------------------------------------------------------| 
|----------------------------------------------------------------|
|----------------------------------------------------------------|
|-0000-0--0000-0--3333-3--3333-3--5555-5--5555-5--5555-5--5555-5-| 


|-------------------------------------------------------------------| 
|-------------------------------------------------------------------|
|-------------------------------------------------------------------|
|-5555-5--5555-5--5555-5--5555-3-5-1111-1--1111-1--1111-1--1111-0-1-| 

|----------------------------------------------------------------| 
|----------------------------------------------------------------| 
|----------------------------------------------------------------|
|-0000-0--0000-0--3333-3--3333-3--5555-5--5555-5--5555-5--5555-5-| 

Riff Final {4:20}
|--------------------------------------------------------------| 
|--------------------------------------------------------------| 
|--------------------------------------------------------------| 
|--3-5--1--0-1-0--3--5--5-5-5-5-5-5-5-5-5-5-5-5-5-5-5-5-5-5...-|
comments
We did not receive enough feedback on this tab! Please rate:
print report bad tab
1 2 3 4 5
I want to post or [tab]
guest
You may want to rate the tab now too:
select rating
Please do not post tabs as comments. Select "correction" instead!