Oops, an error
Loading. Please wait.

Voices Of The Dead Bass Tab

version 1
version 1

Intro

Interactive

5,839 views 6 this week
1 commentread comment
1 2 3 4 5
excellent!
x 6
add to favorites
launch autoscroll
font size
0
reset
guitar tuner
Autoscroll
slow
fast
+/-
esc
set tempo
stop
Help us to improve Ultimate-Guitar.com Take our survey!
×
Author
Tuning
D G C F A D
Band: Kreator
Song: Voices of the Dead
Album: Enemy of God (2005)
Bassist: Christian Giesler
Tuning: D tuning

Note:
While you tap with the right hand, the left hand must stay in the frets of the
last chord played. Also, the slides and pull-offs are made with the right hand.

       t    t    t           t    t    t           t     t
F|-------------------|------------------------|------------|
C|-9--12p9-----------|-7-9--12p9--------------|-5--7/9p5---|
G|-7-------12p7-10p7-|-5-7-------12p7-10/12p7-|-3--------7-|
D|-------------------|------------------------|------------|
 |      t
F|-------------------|
C|-5-7--9/10/12p7--4-|
G|-3-5-------------5-|
D|-------------------|

       t    t                t    t    t            t    t    t
F|-------------------|------------------------|-------------------|
C|-9--12p9-----------|-7-9--12p9--------------|-5--12p5-----------|
G|-7-------12p7-10p7-|-5-7-------12p7-10/12p7-|-3-------12p3-12p3-|
D|-------------------|------------------------|-------------------|
 |       t
F|------------------|
C|-5-7--12/14p7--11-|
G|-3-5------------9-|
D|------------------|

       t    t    t           t    t    t           t     t
F|-------------------|------------------------|------------|
C|-9--12p9-----------|-7-9--12p9--------------|-5--7/9p5---|
G|-7-------12p7-10p7-|-5-7-------12p7-10/12p7-|-3--------7-|
D|-------------------|------------------------|------------|
 |      t
F|-------------------|
C|-5-7--9/10/12p7--4-|
G|-3-5-------------5-|
D|-------------------|

       t    t                t    t    t            t    t    t
F|-------------------|------------------------|-------------------|
C|-9--12p9-----------|-7-9--12p9--------------|-5--12p5-----------|
G|-7-------12p7-10p7-|-5-7-------12p7-10/12p7-|-3-------12p3-12p3-|
D|-------------------|------------------------|-------------------|
 |       t
F|--------------|
C|-5-7--12/14p7-|
G|-3-5----------|
D|--------------|

Legend
------
| / = slide up
| p = pull-off
| t = tap
Suggest correction
What's this?
You can suggest a correction to this tab. Community and Mods will review your correction and vote to approve or reject it.
comments
print report bad tab
1 comment total.
+2 reply
KirkHammstter 16 wrote on July 31 2009, 02:21 pm

Finally a good Voices of the Dead tab! Thanks, I've been looking for this from a long time. 5 stars!

guest
You may want to rate the tab now too:
select rating
Please do not post tabs as comments. Select "correction" instead!