Oops, an error
Loading. Please wait.

Voices Of The Dead Bass Tab

version 2
version 2

Intro

Interactive

2,110 views 3 this week
no commentswrite comment
1 2 3 4 5
please rate
add to favorites
launch autoscroll
font size
0
reset
guitar tuner
Tab Pro tools
  • play this tab
  • loop segment
  • change instrument
  • show fretboard
  • metronome
×
Best way to learn
"Voices Of The Dead"
Autoscroll
slow
fast
+/-
esc
set tempo
stop
Contributor
Difficulty
Tuning
intermediate
D G C F A D
Kreator – Voices of the Dead Bass (Intro only).

Key

T= tapped.
P= pull off
/ or \ = slides.

In D standard (since people didn't get my note about just lifting the notes up two frets 
you're downtuned).

1st time

G|------------------------|----------------------------|
D|9—----t12p9-------------|7-9---t12p9-----------------|
A|7-----------t12p7—t10p7-|5-7-----------t12p7—t10/12p7|
E|------------------------|----------------------------|

G|-----------------------|----------------------------|
D|5—----t7/9p5-----------|5-7----t9/10/12p7-----------|
A|3------------t7--------|3-5-------------------------|
E|-----------------------|----------------------------|

2nd time

G|------------------------|----------------------------|
D|9—----t12p9-------------|7-9---t12p9-----------------|
A|7-----------t12p7—t10p7-|5-7-----------t12p7—t10/12p7|
E|------------------------|----------------------------|

G|------------------------|------------------------|
D|5—----t12p5-------------|5-7----t9/14p----------7|
A|3-----------t12p3-t10p3-|3-5--------------------5|
E|------------------------|------------------------| (back to first time)

Or alternatively for those who don't want to tune down ... in E standard

1st time.

G|-----------------------|----------------------------|
D|7—----t10p7------------|5-7----t10p7----------------|
A|5-----------t10p5—t8p5-|3-5-----------t10p5—t8/10p5-|
E|-----------------------|----------------------------|

G|-----------------------|----------------------------|
D|3—----t5/7p3-----------|3-5----t7/8/10p5------------|
A|1------------t5--------|1-3-------------------------|
E|-----------------------|----------------------------|

2nd time.

G|-----------------------|----------------------------|
D|7—----t10p7------------|5-7----t10p7----------------|
A|5-----------t10p5—t8p5-|3-5-----------t10p5—t8/10p5-|
E|-----------------------|----------------------------|

G|-----------------------|----------------------------|
D|3—----t10p3------------|3-5----t7/12p5-------------3|
A|1-----------t10p1-t8p1-|1-3------------------------5|
E|-----------------------|----------------------------| (back to first!)

After the second time go back to the first and repeat through.
Anything that isn't a fifth chord play with your right hand :)

I’ve seen a lot of requests for the intro to the bass for this song on youtube. I 
to the song lots and watched some videos of it being played and this is what I got. I hope it 
:). This is also my first tab so sorry for any mistakes!

Tabbed by Roach.
comments
We did not receive enough feedback on this tab! Please rate:
print report bad tab
1 2 3 4 5
I want to post or [tab]
guest
You may want to rate the tab now too:
select rating
Please do not post tabs as comments. Select "correction" instead!