Oops, an error
Loading. Please wait.

Alive Acoustic tab

version 2
version 2

Whole song

Interactive

93,869 views 15 this week
11 commentsread comments
1 2 3 4 5
x 21
add to favorites
×
Save as Personal and add changes to this tab that will be seen only by you. Learn more ›
×
You can save this tab as Personal to edit and correct it or add notes. All changes will be seen only by you. Learn more »
launch autoscroll
font size
0
reset
how to read this tab
guitar tuner
edit
Autoscroll
slow
fast
+/-
esc
set tempo
stop
[Intro guitar/piano piece]

    F#m                         E

Eb|-------------12p9-------------------------------------|
Bb|---------10-----------10---------------9/12--10--9h10-|
F#|-----11-------------------11--------9-----------------|
C#|---------------------------------9--------------------|
G#|--9----------------9----------7-----------------------|
Eb|------------------------------------------------------|

     A                         D              E
Eb|--------------7/9--7--5--------------------------------|
Bb|-----------5----------------------10--9----------9/10--|
F#|--------6---------------------5------------------------| Repeated 6 times
C#|-----7----------------------0--------------------------|  or until bridge
G#|--0------------------------------------------7---------|
Eb|-------------------------------------------0-----------|


[Verse]

F#m                      E               A
Let's make this fleeting moment last forever
    D                   E
So, tell me what you're waiting for?
F#m               E               A
I'm gonna keep it frozen here forever
        D             E
There's no regretting anymore
F#m                       E
It's worth the wait, even so far away
    A                        D           E
I'm making the night mine, until the day I die
F#m                             E
No lights to brake, when you're hanging by fate
    A                             D              E
You know what it feels like, when you're dancing blind


[Bridge]

F#m        E
All alone, just the beat inside my soul
A             D
Take me home, where my dreams are made of gold
F#m          E
In the zone, where the beat is uncontrolled
A
I know what it feels like
D
Come on, make me feel alive


[Main Refrain]

F#m

       E
Oh Ohh
        A
Woh Ohh
D                            F#m
Come on, make me feel alive
        E
Oh Ohh
        A
Woh Ohh
D

F#m             E
Oh oh oh oah oh waoh oh
A               D
Oh oh oh oah oh waoh oh

F#m             E
Oh oh oh oah oh waoh oh
A               D
Oh oh oh oah oh waoh oh


[Verse]

Play intro riff again 2x only

F#m           E
Meet me under shining lights
          A                   D      E
I've been waiting right here all my life
F#m          E                      A             D       E
Feelings you can't deny that you're living, open up your eyes
    F#m                         E
And I just wanna sink into your crazy laughter
A                                D          E
Come on, make me feel, until the pain don't matter
F#m                        E
Every second here makes my heart beat faster
A                              D       E
Finally think I found what I'm chasing after


[Bridge]

F#m        E
All alone, just the beat inside my soul
A             D
Take me home, where my dreams are made of gold
F#m          E
In the zone, where the beat is uncontrolled
A
I know what it feels like
D
Come on, make me feel alive


[Main Refrain]

F#m

       E
Oh Ohh
        A
Woh Ohh
D                            F#m
Come on, make me feel alive
        E
Oh Ohh
        A
Woh Ohh
D

F#m             E
Oh oh oh oah oh waoh oh
A               D
Oh oh oh oah oh waoh oh

F#m             E
Oh oh oh oah oh waoh oh
A               D
Oh oh oh oah oh waoh oh


[Bridge 2]

(Same chords as [Main Refrain])

F#m        A
All alone, just the beat inside my soul
E             D
Take me home, where my dreams are made of gold
F#m          A
In the zone, where the beat is uncontrolled
E
I know what it feels like
D
Come on, make me feel alive


[Main Refrain]

F#m

       E
Oh Ohh
        A
Woh Ohh
D                            F#m
Come on, make me feel alive
        E
Oh Ohh
        A
Woh Ohh
D

F#m             E
Oh oh oh oah oh waoh oh
A               D
Oh oh oh oah oh waoh oh

F#m             E
Oh oh oh oah oh waoh oh
A               D
Oh oh oh oah oh waoh oh


[Outro]

F#m  A  E  D

F#m  A  E  D

            
            
Suggest correction
Creating personal tab
Creating personal tab
You can edit any tab online and save it as your Personal.

You can edit, replace or remove any tab part or add personal notes – all changes will be seen only by you.

Personal tabs can be accessed anytime from any device, even offline.
Learn more »
comments
print report bad tab
11 comments total. Showing first comments.
+1 reply
aaronnkan 10 Sep 15, 2013 06:14 AM

A D
Eb|--------------7/9--7--5--------------------------|
Bb|-----------5-------------------7--------------9--|
F#|--------6-------------------------7--------9-----| Repeated 6 times
C#|-----7----------------------7-----------9--------| or until bridge
G#|--0----------------------5-----------7-----------|
Eb|-------------------------------------------------|

It should be played like this instead, please edit it? :)

A D E
Eb|--------------7/9--7--5--------------------------|
Bb|-----------5-------------------10-9--------9-10--|
F#|--------6----------------------------------------| Repeated 6 times
C#|-----7----------------------0--------------------| or until bridge
G#|--0----------------------5--------------7--------|
Eb|-------------------------------------0-----------|

+4 reply
tbdodge 12 Oct 09, 2013 08:01 PM

Eb|--------------7/9--7--5--------------------------|
Bb|-----------5-------------------10-9--------9-10--|
F#|--------6-------------------7----------9---------| Repeated 6 times
C#|-----7-------------------0----------------------| or until bridge
G#|--0----------------------------------7---------|
Eb|------------------------------------------------|

0 reply
guitario89 206 Oct 21, 2013 12:38 AM

tbdoge's is the right one imo

guest
You may want to rate the tab now too:
select rating
Wanna post a correction for this tab? Suggest correction