Oops, an error
Loading. Please wait.

More Than This Tab

1,527 views 1 this week
no commentswrite comment
1 2 3 4 5
please rate
add to favorites
launch autoscroll
font size
0
reset
how to read this tab
guitar tuner
Autoscroll
slow
fast
+/-
esc
set tempo
stop
Help us to improve Ultimate-Guitar.com Take our survey!
×
Contributor
Song:        More Than This
Band:        Krezip
Album:       Days Like This
Tuning:      Standard (EADGBe)
Tabbed by:   Lex Razoux


Verse

Guitar 1:

   D            F      D#    F    D
e|------------------|------------------|
B|------------------|------------------|
G|-7-7----7-7---10--|--8-8---10---7-7--|
D|-7-7----7-7---10--|--8-8---10---7-7--|
A|-5-5----5-5---8---|--6-6---8----5-5--|
E|------------------|------------------|

   D            F      D#    F    D
e|------------------|------------------|
B|------------------|------------------|
G|-7-7----7-7---10--|--8-8---10---7-7--|
D|-7-7----7-7---10--|--8-8---10---7-7--|
A|-5-5----5-5---8---|--6-6---8----5-5--|
E|------------------|------------------|

   D            F      D#    F    D    F
e|------------------|---------------------|
B|------------------|---------------------|
G|-7-7----7-7---10--|--8-8---10---7-7--10-|
D|-7-7----7-7---10--|--8-8---10---7-7--8--|
A|-5-5----5-5---8---|--6-6---8----5-5--8--|
E|------------------|---------------------|


Guitar 2: 3x

e|----5-----------5--|----5-----------8--|
B|----------6--------|----------6--------|
G|-------7-----7-----|-------7-----7-----|
D|-------------------|-------------------|
A|-5-----------------|-5-----------------|
E|-------------------|-------------------|


Pre-Chorus

Guitar 1:

   Dm     C#      Bb     A
e|-------------|--------------------------|
B|-6-6----6-6--|--3-3---------------------|
G|-7-7----6-6--|--3-3----6-6-6-6-6-6-6-6--|
D|-7-7----6-6--|--3-3----7-7-7-7-7-7-7-7--|
A|-5-5----4-4--|--1-1----7-7-7-7-7-7-7-7--|
E|-------------|---------5-5-5-5-5-5-5-5--|


Guitar 2:

e|-------------------|-------------------|
B|-------------------|-------------------|
G|-------7-----------|-------7-----------|
D|-------------------|-------------------|
A|-------------------|-------------------|
E|-------------------|-------------------|

e|-------------------|-------------------|
B|----5-----6--------|-------------------|
G|-------7-----------|-------------------|
D|-------------------|-7-7-7-7-7-7-7-7---|
A|-------------------|-7-7-7-7-7-7-7-7---|
E|-------------------|-5-5-5-5-5-5-5-5---|


Chorus 4x

   Dm       C         Bb       A 
e|------------------|------------------|
B|------------------|------------------|
G|-7-7-7-7--5-5-5-5-|-3-3-3-3----------|
D|-7-7-7-7--5-5-5-5-|-3-3-3-3--7-7-7-7-|
A|-5-5-5-5--3-3-3-3-|-1-1-1-1--7-7-7-7-|
E|------------------|----------5-5-5-5-|

 
Verse

Guitar 1:

   D            F      D#    F    D
e|------------------|------------------|
B|------------------|------------------|
G|-7-7----7-7---10--|--8-8---10---7-7--|
D|-7-7----7-7---10--|--8-8---10---7-7--|
A|-5-5----5-5---8---|--6-6---8----5-5--|
E|------------------|------------------|

   D            F      D#    F    D
e|------------------|------------------|
B|------------------|------------------|
G|-7-7----7-7---10--|--8-8---10---7-7--|
D|-7-7----7-7---10--|--8-8---10---7-7--|
A|-5-5----5-5---8---|--6-6---8----5-5--|
E|------------------|------------------|

   D            F      D#    F    D    F
e|------------------|---------------------|
B|------------------|---------------------|
G|-7-7----7-7---10--|--8-8---10---7-7--10-|
D|-7-7----7-7---10--|--8-8---10---7-7--8--|
A|-5-5----5-5---8---|--6-6---8----5-5--8--|
E|------------------|---------------------|


Guitar 2: 3x

e|----5-----------5--|----5-----------8--|
B|----------6--------|----------6--------|
G|-------7-----7-----|-------7-----7-----|
D|-------------------|-------------------|
A|-5-----------------|-5-----------------|
E|-------------------|-------------------|


Pre-Chorus

Guitar 1:

   Dm     C#      Bb     A
e|-------------|--------------------------|
B|-6-6----6-6--|--3-3---------------------|
G|-7-7----6-6--|--3-3----6-6-6-6-6-6-6-6--|
D|-7-7----6-6--|--3-3----7-7-7-7-7-7-7-7--|
A|-5-5----4-4--|--1-1----7-7-7-7-7-7-7-7--|
E|-------------|---------5-5-5-5-5-5-5-5--|


Guitar 2:

e|-------5-----------|-------------------|
B|-------------------|-------6-----------|
G|----7--------------|----7--------------|
D|-------------------|-------------------|
A|-5-----------------|-5-----------------|
E|-------------------|-------------------|

e|-------------------|-------------------|
B|-------5-----6-----|-------------------|
G|----7-----7--------|-------------------|
D|-------------------|-7-7-7-7-7-7-7-7---|
A|-5-----------------|-7-7-7-7-7-7-7-7---|
E|-------------------|-5-5-5-5-5-5-5-5---|


Chorus

   D        C         Bb       A 
e|------------------|------------------|
B|------------------|------------------|
G|-7-7-7-7--5-5-5-5-|-3-3-3-3----------|
D|-7-7-7-7--5-5-5-5-|-3-3-3-3--7-7-7-7-|         8x
A|-5-5-5-5--3-3-3-3-|-1-1-1-1--7-7-7-7-|
E|------------------|----------5-5-5-5-|


   D                  Bb       A 
e|------------------|------------------|
B|------------------|------------------|
G|-7-7--------------|-3-3-3-3----------|
D|-7-7--------------|-3-3-3-3--7-7-7-7-|
A|-5-5--------------|-1-1-1-1--7-7-7-7-|
E|------------------|----------5-5-5-5-|



   D        C         Bb       A 
e|------------------|------------------|
B|------------------|------------------|
G|-7-7-7-7--5-5-5-5-|-3-3-3-3----------|
D|-7-7-7-7--5-5-5-5-|-3-3-3-3--7-7-7-7-|         3x
A|-5-5-5-5--3-3-3-3-|-1-1-1-1--7-7-7-7-|
E|------------------|----------5-5-5-5-|


Solo

Guitar 1:

|----10---------|------10----------------|
|-----------10--|---------8--10/11\10----|
|-7------7------|---7--------------------|
|---------------|------------------------|
|---------------|------------------------|
|---------------|------------------------|

|----10---------|--------10--8-8br-------|
|---------------|----10------------8-----|
|-7------7------|-7-------------------7--|
|-----------7---|------------------------|
|---------------|------------------------|
|---------------|------------------------|


Guitar 2:

   D        C         Bb       A 
e|------------------|------------------|
B|------------------|------------------|
G|-7-7-7-7--5-5-5-5-|-3-3-3-3----------|
D|-7-7-7-7--5-5-5-5-|-3-3-3-3--7-7-7-7-|         4x
A|-5-5-5-5--3-3-3-3-|-1-1-1-1--7-7-7-7-|
E|------------------|----------5-5-5-5-|

   D                             
e|------------------|
B|------------------|
G|-7----------------|
D|-7----------------|         
A|-5----------------|
E|------------------|

                                                            Lex Razoux
comments
We did not receive enough feedback on this tab! Please rate:
print report bad tab
1 2 3 4 5
I want to post or [tab]
guest
You may want to rate the tab now too:
select rating
Please do not post tabs as comments. Select "correction" instead!