Oops, an error
Loading. Please wait.

Falling Slowly Tab

version 2
version 2

Whole song

4,691 views 1 this week
no commentswrite comment
1 2 3 4 5
please rate
add to favorites
launch autoscroll
font size
0
reset
how to read this tab
guitar tuner
Tab Pro tools
  • play this tab
  • loop segment
  • change instrument
  • show fretboard
  • metronome
×
Best way to learn
"Falling Slowly"
Autoscroll
slow
fast
+/-
esc
set tempo
stop
Verse x 2

         D                G                 D             G
e-----------2---0h2|----------3---2--|--------2---0h2|-------------|
B------3------3----|------3-----3---3|-----3----3----|------3-3-3--|
G----2---2---------|--------0--------|---2--2--------|-------0-0-0-|
D—-0---------------|—---0------------|—0-------------|----0--------|
A------------------|—----------------|—--------------|-------------|
E------------------|—-3--------------|—--------------|--3----------|

Pre-Chorus

      Bm             A          Bm           A        Bm           A
e-------------|------------|----------|-----------|----------|-----------|
B--------3----|-------2----|-----3----|------2----|-----3----|------2----|
G----------4--|---------2--|--------4-|--------2--|--------4-|--------2--|
D—----4-------|—---2-------|—--4------|—---2------|—--4------|—---2------|
A---2---------|—-0---------|—2--------|--0--------|—2--------|--0--------|
E-------------|—-----------|—---------|-----------|—---------|-----------|


     G                     G
e--------------------------3----------------------|
B------3-----------3-------3----------------------|
G--------0-----------0-----0----------------------|
D--------------------------0-listen for strumming-|
A---2----------2-----------2----------------------|
E-3----------3-------------3----------------------|


Chorus:
D                     G
Take this sinking boat and point it home
D             Bm     G
We’ve still got time
D                       G
Raise your hopeful voice you have a choice
D             Bm   G
You’ll make it now


Final Chorus:
D                     G
Take this sinking boat and point it home
D             Bm     G
We’ve still got time
D                       G
Raise your hopeful voice you have a choice
D             Bm   G
You’ll make it now
D              G
Falling slowly sing your melody
Bm   A    G
I’ll sing along



Order:
Verse
Pre-Chorus
Chorus
Verse
Pre-Chorus
Final Chorus
comments
We did not receive enough feedback on this tab! Please rate:
print report bad tab
1 2 3 4 5
I want to post or [tab]
guest
You may want to rate the tab now too:
select rating
Please do not post tabs as comments. Select "correction" instead!